  0
SECTION
  2
HEADER
  9
$ACADVER
  1
AC1015
  9
$ACADMAINTVER
 70
    20
  9
$DWGCODEPAGE
  3
ANSI_1252
  9
$INSBASE
 10
0.0
 20
0.0
 30
0.0
  9
$EXTMIN
 10
-0.0448702408409076
 20
-0.2795499774051713
 30
-0.0000000000020598
  9
$EXTMAX
 10
8.277300841529381
 20
5.041999133931955
 30
0.00000000500206
  9
$LIMMIN
 10
0.0
 20
0.0
  9
$LIMMAX
 10
17.0
 20
11.0
  9
$ORTHOMODE
 70
     0
  9
$REGENMODE
 70
     1
  9
$FILLMODE
 70
     1
  9
$QTEXTMODE
 70
     0
  9
$MIRRTEXT
 70
     1
  9
$LTSCALE
 40
1.0
  9
$ATTMODE
 70
     1
  9
$TEXTSIZE
 40
0.2
  9
$TRACEWID
 40
0.05
  9
$TEXTSTYLE
  7
USER2
  9
$CLAYER
  8
0
  9
$CELTYPE
  6
ByLayer
  9
$CECOLOR
 62
     1
  9
$CELTSCALE
 40
1.0
  9
$DISPSILH
 70
     0
  9
$DIMSCALE
 40
1.0
  9
$DIMASZ
 40
0.125
  9
$DIMEXO
 40
0.0625
  9
$DIMDLI
 40
0.24
  9
$DIMRND
 40
0.0
  9
$DIMDLE
 40
0.0
  9
$DIMEXE
 40
0.125
  9
$DIMTP
 40
0.0
  9
$DIMTM
 40
0.0
  9
$DIMTXT
 40
0.125
  9
$DIMCEN
 40
0.03
  9
$DIMTSZ
 40
0.0
  9
$DIMTOL
 70
     0
  9
$DIMLIM
 70
     0
  9
$DIMTIH
 70
     1
  9
$DIMTOH
 70
     1
  9
$DIMSE1
 70
     0
  9
$DIMSE2
 70
     0
  9
$DIMTAD
 70
     0
  9
$DIMZIN
 70
     0
  9
$DIMBLK
  1

  9
$DIMASO
 70
     1
  9
$DIMSHO
 70
     1
  9
$DIMPOST
  1

  9
$DIMAPOST
  1

  9
$DIMALT
 70
     0
  9
$DIMALTD
 70
     2
  9
$DIMALTF
 40
25.4
  9
$DIMLFAC
 40
1.0
  9
$DIMTOFL
 70
     0
  9
$DIMTVP
 40
0.0
  9
$DIMTIX
 70
     0
  9
$DIMSOXD
 70
     0
  9
$DIMSAH
 70
     0
  9
$DIMBLK1
  1

  9
$DIMBLK2
  1

  9
$DIMSTYLE
  2
Standard
  9
$DIMCLRD
 70
     1
  9
$DIMCLRE
 70
     1
  9
$DIMCLRT
 70
     1
  9
$DIMTFAC
 40
1.0
  9
$DIMGAP
 40
0.09
  9
$DIMJUST
 70
     0
  9
$DIMSD1
 70
     0
  9
$DIMSD2
 70
     0
  9
$DIMTOLJ
 70
     1
  9
$DIMTZIN
 70
     0
  9
$DIMALTZ
 70
     0
  9
$DIMALTTZ
 70
     0
  9
$DIMUPT
 70
     0
  9
$DIMDEC
 70
     3
  9
$DIMTDEC
 70
     3
  9
$DIMALTU
 70
     2
  9
$DIMALTTD
 70
     2
  9
$DIMTXSTY
  7
STANDARD
  9
$DIMAUNIT
 70
     0
  9
$DIMADEC
 70
     0
  9
$DIMALTRND
 40
0.0
  9
$DIMAZIN
 70
     0
  9
$DIMDSEP
 70
    46
  9
$DIMATFIT
 70
     3
  9
$DIMFRAC
 70
     0
  9
$DIMLDRBLK
  1

  9
$DIMLUNIT
 70
     2
  9
$DIMLWD
 70
    -1
  9
$DIMLWE
 70
    -1
  9
$DIMTMOVE
 70
     0
  9
$LUNITS
 70
     2
  9
$LUPREC
 70
     4
  9
$SKETCHINC
 40
0.1
  9
$FILLETRAD
 40
0.0
  9
$AUNITS
 70
     0
  9
$AUPREC
 70
     0
  9
$MENU
  1
.
  9
$ELEVATION
 40
0.0
  9
$PELEVATION
 40
0.0
  9
$THICKNESS
 40
0.0
  9
$LIMCHECK
 70
     0
  9
$CHAMFERA
 40
0.125
  9
$CHAMFERB
 40
0.125
  9
$CHAMFERC
 40
1.0
  9
$CHAMFERD
 40
0.0
  9
$SKPOLY
 70
     0
  9
$TDCREATE
 40
2452510.507111354
  9
$TDUCREATE
 40
2452510.715444688
  9
$TDUPDATE
 40
2454839.748727674
  9
$TDUUPDATE
 40
2454839.957061007
  9
$TDINDWG
 40
0.4359767130
  9
$TDUSRTIMER
 40
0.4359756366
  9
$USRTIMER
 70
     1
  9
$ANGBASE
 50
0.0
  9
$ANGDIR
 70
     0
  9
$PDMODE
 70
     0
  9
$PDSIZE
 40
0.0
  9
$PLINEWID
 40
0.0
  9
$SPLFRAME
 70
     0
  9
$SPLINETYPE
 70
     6
  9
$SPLINESEGS
 70
     8
  9
$HANDSEED
  5
393
  9
$SURFTAB1
 70
     6
  9
$SURFTAB2
 70
     6
  9
$SURFTYPE
 70
     6
  9
$SURFU
 70
     6
  9
$SURFV
 70
     6
  9
$UCSBASE
  2

  9
$UCSNAME
  2

  9
$UCSORG
 10
0.0
 20
0.0
 30
0.0
  9
$UCSXDIR
 10
1.0
 20
0.0
 30
0.0
  9
$UCSYDIR
 10
0.0
 20
1.0
 30
0.0
  9
$UCSORTHOREF
  2

  9
$UCSORTHOVIEW
 70
     0
  9
$UCSORGTOP
 10
0.0
 20
0.0
 30
0.0
  9
$UCSORGBOTTOM
 10
0.0
 20
0.0
 30
0.0
  9
$UCSORGLEFT
 10
0.0
 20
0.0
 30
0.0
  9
$UCSORGRIGHT
 10
0.0
 20
0.0
 30
0.0
  9
$UCSORGFRONT
 10
0.0
 20
0.0
 30
0.0
  9
$UCSORGBACK
 10
0.0
 20
0.0
 30
0.0
  9
$PUCSBASE
  2

  9
$PUCSNAME
  2

  9
$PUCSORG
 10
0.0
 20
0.0
 30
0.0
  9
$PUCSXDIR
 10
1.0
 20
0.0
 30
0.0
  9
$PUCSYDIR
 10
0.0
 20
1.0
 30
0.0
  9
$PUCSORTHOREF
  2

  9
$PUCSORTHOVIEW
 70
     0
  9
$PUCSORGTOP
 10
0.0
 20
0.0
 30
0.0
  9
$PUCSORGBOTTOM
 10
0.0
 20
0.0
 30
0.0
  9
$PUCSORGLEFT
 10
0.0
 20
0.0
 30
0.0
  9
$PUCSORGRIGHT
 10
0.0
 20
0.0
 30
0.0
  9
$PUCSORGFRONT
 10
0.0
 20
0.0
 30
0.0
  9
$PUCSORGBACK
 10
0.0
 20
0.0
 30
0.0
  9
$USERI1
 70
     0
  9
$USERI2
 70
     0
  9
$USERI3
 70
     0
  9
$USERI4
 70
     0
  9
$USERI5
 70
     0
  9
$USERR1
 40
0.0
  9
$USERR2
 40
0.0
  9
$USERR3
 40
0.0
  9
$USERR4
 40
0.0
  9
$USERR5
 40
0.0
  9
$WORLDVIEW
 70
     1
  9
$SHADEDGE
 70
     3
  9
$SHADEDIF
 70
    70
  9
$TILEMODE
 70
     1
  9
$MAXACTVP
 70
    64
  9
$PINSBASE
 10
0.0
 20
0.0
 30
0.0
  9
$PLIMCHECK
 70
     0
  9
$PEXTMIN
 10
-0.0886999444988327
 20
-0.5584115592446885
 30
-0.4600000000000001
  9
$PEXTMAX
 10
16.55288843287491
 20
10.08317681812906
 30
0.0
  9
$PLIMMIN
 10
-0.1966666612099475
 20
-0.6666661810687208
  9
$PLIMMAX
 10
16.7999999541936
 20
10.32666656914658
  9
$UNITMODE
 70
     0
  9
$VISRETAIN
 70
     1
  9
$PLINEGEN
 70
     0
  9
$PSLTSCALE
 70
     1
  9
$TREEDEPTH
 70
  3020
  9
$CMLSTYLE
  2
Standard
  9
$CMLJUST
 70
     0
  9
$CMLSCALE
 40
1.0
  9
$PROXYGRAPHICS
 70
     1
  9
$MEASUREMENT
 70
     0
  9
$CELWEIGHT
370
    -1
  9
$ENDCAPS
280
     0
  9
$JOINSTYLE
280
     0
  9
$LWDISPLAY
290
     0
  9
$INSUNITS
 70
     1
  9
$HYPERLINKBASE
  1

  9
$STYLESHEET
  1

  9
$XEDIT
290
     1
  9
$CEPSNTYPE
380
     0
  9
$PSTYLEMODE
290
     1
  9
$FINGERPRINTGUID
  2
{DD1F1ADA-E246-4298-9CDB-B336699C7090}
  9
$VERSIONGUID
  2
{2ED8E8D4-900A-4090-A25D-0172CCA552A3}
  9
$EXTNAMES
290
     1
  9
$PSVPSCALE
 40
0.0
  9
$OLESTARTUP
290
     0
  0
ENDSEC
  0
SECTION
  2
CLASSES
  0
CLASS
  1
ACDBDICTIONARYWDFLT
  2
AcDbDictionaryWithDefault
  3
ObjectDBX Classes
 90
        0
280
     0
281
     0
  0
CLASS
  1
ACDBPLACEHOLDER
  2
AcDbPlaceHolder
  3
ObjectDBX Classes
 90
        0
280
     0
281
     0
  0
CLASS
  1
LAYOUT
  2
AcDbLayout
  3
ObjectDBX Classes
 90
        0
280
     0
281
     0
  0
CLASS
  1
ACME_DOCUMENT
  2
AcMeDbDoc
  3
AcMeServices
 90
     1024
280
     0
281
     0
  0
CLASS
  1
ACMESCOPE
  2
AcMeScope
  3
AcMeServices
 90
     1024
280
     0
281
     0
  0
CLASS
  1
ACMECOMMANDHISTORY
  2
AcMeCommandHistory
  3
AcMeServices
 90
     1024
280
     0
281
     0
  0
CLASS
  1
ACIMSYSVARMAN
  2
AcImSysVarManager
  3
AcMeServices
 90
     1024
280
     0
281
     0
  0
CLASS
  1
ACIMREALSYSVAR
  2
AcImRealSysVar
  3
AcMeServices
 90
     1024
280
     0
281
     0
  0
CLASS
  1
ACIMINTSYSVAR
  2
AcImIntSysVar
  3
AcMeServices
 90
     1024
280
     0
281
     0
  0
CLASS
  1
ACMEDRAWINGMAN
  2
AcMeDrawingMan
  3
AcMeServices
 90
     1024
280
     0
281
     0
  0
CLASS
  1
ACMEVIEW
  2
AcMeView
  3
AcMeServices
 90
     1024
280
     0
281
     0
  0
CLASS
  1
ACDBENTITYCACHE
  2
AcMeEntityCache
  3
AcMeServices
 90
     1024
280
     0
281
     0
  0
CLASS
  1
GSMANAGER
  2
AcMeGSManager
  3
AcMeServices
 90
     1024
280
     0
281
     0
  0
CLASS
  1
AMDTINTERNALREACTOR
  2
AmdtInternalReactor
  3
AcMeServices
 90
     1024
280
     0
281
     0
  0
CLASS
  1
ACMESTATEMGR
  2
AcMeStateMgr
  3
AcMeServices
 90
     1024
280
     0
281
     0
  0
CLASS
  1
ACGREFMASTER
  2
AcGrefMaster
  3
AcAttribServices
 90
     1024
280
     0
281
     0
  0
CLASS
  1
AM_DRAWING_MGR
  2
AcDmDwgMgr
  3
AcMechDwgViewMgmt
 90
     1024
280
     0
281
     0
  0
CLASS
  1
AM_DWG_DOCUMENT
  2
AcDmDwgDocument
  3
AcMechDwgViewMgmt
 90
     1024
280
     0
281
     0
  0
CLASS
  1
AM_DWG_SHEET
  2
AcDmSheet
  3
AcMechDwgViewMgmt
 90
     1024
280
     0
281
     0
  0
CLASS
  1
AM_VIEWDIMPARMAP
  2
AcDmViewDimParMap
  3
AcMechDwgViewMgmt
 90
     1024
280
     0
281
     0
  0
CLASS
  1
AM_DWGMGR_NAME
  2
AcDmDwgMgrName
  3
AcMechDwgViewMgmt
 90
     1024
280
     0
281
     0
  0
CLASS
  1
ACME_DATABASE
  2
AcMeDbDatabase
  3
AcMeServices
 90
     1024
280
     0
281
     0
  0
CLASS
  1
ACRFINSADJUSTERMGR
  2
AcRfInsAdjusterMgr
  3
AcMeServices
 90
     1024
280
     0
281
     0
  0
CLASS
  1
ACGREFACADMASTER
  2
AcGrefacadMaster
  3
AcGrefServices
 90
     1024
280
     0
281
     0
  0
CLASS
  1
AMDTMENUSTATEMGR
  2
AmdtMenuStateMgr
  3
McadcomServices
 90
     1024
280
     0
281
     0
  0
CLASS
  1
AMDTMCOMMENUSTATE
  2
AmdtMcomMenuState
  3
McadcomServices
 90
     1024
280
     0
281
     0
  0
CLASS
  1
AMIMASTER
  2
AmiMaster
  3
AmiServices
 90
     1024
280
     0
281
     0
  0
CLASS
  1
AMGSETTINGSOBJ
  2
AmgSettingsObj
  3
"AcadM|Product Description: AutoCAD Mechanical|Company: Autodesk, Inc."
 90
     1024
280
     0
281
     0
  0
CLASS
  1
ASAPP
  2
AcAsAppObject
  3
AutoSurfServices
 90
     1024
280
     0
281
     0
  0
CLASS
  1
IM_STATIC_MAN
  2
AcImStaticVarManager
  3
AcMeServices
 90
     1024
280
     0
281
     0
  0
CLASS
  1
ACIMSTRSYSVAR
  2
AcImStrSysVar
  3
AcMeServices
 90
     1024
280
     0
281
     0
  0
CLASS
  1
ACIMDBLSTATICVAR
  2
AcImDblStaticVar
  3
AcMeServices
 90
     1024
280
     0
281
     0
  0
CLASS
  1
ACIMSTRSTATICVAR
  2
AcImStrStaticVar
  3
AcMeServices
 90
     1024
280
     0
281
     0
  0
CLASS
  1
ACIMINTSTATICVAR
  2
AcImIntStaticVar
  3
AcMeServices
 90
     1024
280
     0
281
     0
  0
CLASS
  1
ACASGREFMASTER
  2
AcAsGrefMaster
  3
AutoSurfResolverServices
 90
     1024
280
     0
281
     0
  0
CLASS
  1
ACADGREFMODULE
  2
AcAdGrefModule
  3
AdGrefServices
 90
     1024
280
     0
281
     0
  0
CLASS
  1
AMDTMAPISURFMOUDULE
  2
AmdtMApiSurfModule
  3
MApiSurfServices
 90
     1024
280
     0
281
     0
  0
CLASS
  1
MAPIAMMOUDLE
  2
MApiAmModule
  3
MApiAmServices
 90
     1024
280
     0
281
     0
  0
CLASS
  1
AMDTADMENUSTATE
  2
AmdtAdMenuState
  3
DesignerServices
 90
     1024
280
     0
281
     0
  0
CLASS
  1
ADAPPL
  2
AcAdAppl
  3
DesignerServices
 90
     1024
280
     0
281
     0
  0
CLASS
  1
DEPMGR
  2
AcAdDepMgr
  3
DesignerServices
 90
     1024
280
     0
281
     0
  0
CLASS
  1
PARAMMGR
  2
AcAdParamMgr
  3
DesignerServices
 90
     1024
280
     0
281
     0
  0
CLASS
  1
PARAMSCOPE
  2
AcAdParamScope
  3
DesignerServices
 90
     1024
280
     0
281
     0
  0
CLASS
  1
NAMEDAPPL
  2
AcAdNamedAppl
  3
DesignerServices
 90
     1024
280
     0
281
     0
  0
CLASS
  1
AMDTDMMENUSTATE
  2
AmdtDmMenuState
  3
AcMechDwgViewMgmt
 90
     1024
280
     0
281
     0
  0
CLASS
  1
MAPIADMODULE
  2
MApiAdModule
  3
MApiAdServices
 90
     1024
280
     0
281
     0
  0
CLASS
  1
AMDTAMMENUSTATE
  2
AmdtAmMenuState
  3
DesignerAssemblies
 90
     1024
280
     0
281
     0
  0
CLASS
  1
ACAMPROJECT
  2
AcAmProject
  3
DesignerAssemblies
 90
     1024
280
     0
281
     0
  0
CLASS
  1
ACAMGRCOMPDEF
  2
AcAmGrCompDef
  3
DesignerAssemblies
 90
     1024
280
     0
281
     0
  0
CLASS
  1
ACCMCONTEXT
  2
AcCmContext
  3
DesignerAssemblies
 90
     1024
280
     0
281
     0
  0
CLASS
  1
ACAMCOMPDEF
  2
AcAmCompDef
  3
DesignerAssemblies
 90
     1024
280
     0
281
     0
  0
CLASS
  1
ACAMCOMPDEFMGR
  2
AcAmCompDefMgr
  3
DesignerAssemblies
 90
     1024
280
     0
281
     0
  0
CLASS
  1
AMCONTEXTMGR
  2
AcAmContextMgr
  3
DesignerAssemblies
 90
     1024
280
     0
281
     0
  0
CLASS
  1
ACAMCONTEXTMODELER
  2
AcAmContextModeler
  3
DesignerAssemblies
 90
     1024
280
     0
281
     0
  0
CLASS
  1
ACMDATADICTIONARY
  2
AcmDataDictionary
  3
"AcmSymBB|Product Description: AutoCAD Mechanical|Company: Autodesk, Inc."
 90
     1024
280
     0
281
     0
  0
CLASS
  1
ACMDATAENTRYBLOCK
  2
AcmDataEntryBlock
  3
AcmSymBB|Product Description: AutoCAD Mechanical|Company: Autodesk, Inc.
 90
     1024
280
     0
281
     0
  0
CLASS
  1
ACMSTANDARDANSI
  2
AcmStandardANSI
  3
"Amdt_StdImp|Product Description: AutoCAD Mechanical|Company: Autodesk, Inc."
 90
     1024
280
     0
281
     0
  0
CLASS
  1
AMGOBJPROPCFG
  2
AmgObjPropCfg
  3
"AmgLay|Product Description: AutoCAD Mechanical|Company: Autodesk, Inc."
 90
     1025
280
     0
281
     0
  0
CLASS
  1
ACMSURFSTANDARDANSI
  2
AcmSurfTextStdANSI
  3
"Amdt_StdImp|Product Description: AutoCAD Mechanical|Company: Autodesk, Inc."
 90
     1024
280
     0
281
     0
  0
CLASS
  1
ACMFCFSTANDARDANSI
  2
AcmFCFStdANSI
  3
"Amdt_StdImp|Product Description: AutoCAD Mechanical|Company: Autodesk, Inc."
 90
     1024
280
     0
281
     0
  0
CLASS
  1
ACMWELDSTANDARDANSI
  2
AcmWeldingStdANSI
  3
"Amdt_StdImp|Product Description: AutoCAD Mechanical|Company: Autodesk, Inc."
 90
     1024
280
     0
281
     0
  0
CLASS
  1
ACMIDSTANDARDANSI
  2
AcmIdStdANSI
  3
"Amdt_StdImp|Product Description: AutoCAD Mechanical|Company: Autodesk, Inc."
 90
     1024
280
     0
281
     0
  0
CLASS
  1
ACMDATUMSTANDARDANSI
  2
AcmDatumStdANSI
  3
"Amdt_StdImp|Product Description: AutoCAD Mechanical|Company: Autodesk, Inc."
 90
     1024
280
     0
281
     0
  0
CLASS
  1
ACMBOMSTANDARDANSI
  2
AcmBOMStdANSI
  3
"Amdt_StdImp|Product Description: AutoCAD Mechanical|Company: Autodesk, Inc."
 90
     1024
280
     0
281
     0
  0
CLASS
  1
ACMDETAILSTANDARDANSI
  2
AmdtDetailSymStdANSI
  3
"Amdt_StdImp|Product Description: AutoCAD Mechanical|Company: Autodesk, Inc."
 90
     1024
280
     0
281
     0
  0
CLASS
  1
ACMSECTIONSTANDARDANSI
  2
AmdtSectionSymStdANSI
  3
"Amdt_StdImp|Product Description: AutoCAD Mechanical|Company: Autodesk, Inc."
 90
     1024
280
     0
281
     0
  0
CLASS
  1
ACMCENTERLINESTANDARDANSI
  2
AmdtCenterLineStdANSI
  3
"Amdt_StdImp|Product Description: AutoCAD Mechanical|Company: Autodesk, Inc."
 90
     1024
280
     0
281
     0
  0
CLASS
  1
ACMTHREADLINESTANDARDANSI
  2
AmdtThreadLineStdANSI
  3
"Amdt_StdImp|Product Description: AutoCAD Mechanical|Company: Autodesk, Inc."
 90
     1024
280
     0
281
     0
  0
CLASS
  1
ACMNOTESTANDARDANSI
  2
AmdtNoteStdANSI
  3
"Amdt_StdImp|Product Description: AutoCAD Mechanical|Company: Autodesk, Inc."
 90
     1024
280
     0
281
     0
  0
CLASS
  1
ACAMGLAYSTD
  2
AcAmgLayStd
  3
"AmgLay|Product Description: AutoCAD Mechanical|Company: Autodesk, Inc."
 90
     1024
280
     0
281
     0
  0
CLASS
  1
ACAMGDIMSTD
  2
AcAmgDimStd
  3
"AmgDim|Product Description: AutoCAD Mechanical|Company: Autodesk, Inc."
 90
     1024
280
     0
281
     0
  0
CLASS
  1
ACAMGHOLECHARTSTDANSI
  2
AcAmgHoleChartStdANSI
  3
AmgDim|Product Description: AutoCAD Mechanical|Company: Autodesk, Inc.
 90
     1024
280
     0
281
     0
  0
CLASS
  1
ACAMGTITLESTD
  2
AcAmgTitleStd
  3
"AmgTitle|Product Description: AutoCAD Mechanical|Company: Autodesk, Inc."
 90
     4095
280
     0
281
     0
  0
CLASS
  1
CATALOGSTATE
  2
AcAmCatalogState
  3
DesignerAssemblies
 90
     1024
280
     0
281
     0
  0
CLASS
  1
ACAMGRCOMPDEFSET
  2
AcAmGrCompDefSet
  3
DesignerAssemblies
 90
     1024
280
     0
281
     0
  0
CLASS
  1
AMDTBROWSERDBTAB
  2
AmdtBrowserDbTab
  3
McadcomServices
 90
     1024
280
     0
281
     0
  0
CLASS
  1
CBROWSERAPPOBJECT
  2
CBrowserAppObject
  3
McadcomServices
 90
     1024
280
     0
281
     0
  0
CLASS
  1
DM_PLACEHOLDER
  2
AcDmSelsetPlaceholder
  3
AcMechDwgViewMgmt
 90
     1024
280
     0
281
     0
  0
CLASS
  1
ACAMEXTERNALCOMPDEF
  2
AcAmExternalCompDef
  3
DesignerAssemblies
 90
    33792
280
     0
281
     0
  0
CLASS
  1
ACAMGFILTERDAT
  2
AcAmgFilterDat
  3
"AcadM|Product Description: AutoCAD Mechanical|Company: Autodesk, Inc."
 90
     1024
280
     0
281
     0
  0
CLASS
  1
ACCMBODY
  2
AcCmBody
  3
DesignerAssemblies
 90
    33792
280
     0
281
     0
  0
CLASS
  1
ACAMCOMPENT
  2
AcAmCompEnt
  3
DesignerAssemblies
 90
    33792
280
     0
281
     1
  0
CLASS
  1
ACAMCOMPFEEDBACK
  2
AcAmCompFeedback
  3
DesignerAssemblies
 90
    33792
280
     0
281
     0
  0
CLASS
  1
ACAMCOMP
  2
AcAmComp
  3
DesignerAssemblies
 90
    33792
280
     0
281
     0
  0
CLASS
  1
ACAMCOMPENTCLONE
  2
AcAmCompEntClone
  3
DesignerAssemblies
 90
    33792
280
     0
281
     1
  0
CLASS
  1
ACAMCLONEREACTOR
  2
AcAmGrCompCloneReactor
  3
DesignerAssemblies
 90
    33792
280
     0
281
     0
  0
CLASS
  1
LAYER_INDEX
  2
AcDbLayerIndex
  3
ObjectDBX Classes
 90
        0
280
     0
281
     0
  0
CLASS
  1
IDBUFFER
  2
AcDbIdBuffer
  3
ObjectDBX Classes
 90
        0
280
     0
281
     0
  0
CLASS
  1
DICTIONARYVAR
  2
AcDbDictionaryVar
  3
ObjectDBX Classes
 90
        0
280
     0
281
     0
  0
CLASS
  1
FEEDBACK
  2
AcAmFeedback
  3
DesignerAssemblies
 90
    33792
280
     0
281
     1
  0
CLASS
  1
ACAMTRIAXISSYMBOL
  2
AcAmTriAxisSymbol
  3
DesignerAssemblies
 90
    33792
280
     0
281
     0
  0
CLASS
  1
ACAMTEXTCIRCLESYMBOL
  2
AcAmTextCircleSymbol
  3
DesignerAssemblies
 90
    33792
280
     0
281
     0
  0
CLASS
  1
AM_VIEW_SELECT_FILTER
  2
AcDmSelectViewEntFilter
  3
AcMechDwgViewMgmt
 90
    33792
280
     0
281
     0
  0
CLASS
  1
ACADPARTDATUMPLANERES
  2
AcAdPartDatumPlaneRes
  3
AdGrefServices
 90
    33792
280
     0
281
     0
  0
CLASS
  1
ACRFINSADJ
  2
AcRfInsAdjuster
  3
AcMeServices
 90
    33792
280
     0
281
     0
  0
CLASS
  1
AM_GREF_PLANE
  2
AcDmGrefPlnDef
  3
AcMechDwgViewMgmt
 90
    33792
280
     0
281
     0
  0
CLASS
  1
AM_ABS_PLANE
  2
AcDmAbsPlnDef
  3
AcMechDwgViewMgmt
 90
    33792
280
     0
281
     0
  0
CLASS
  1
AM_ABS_AXIS
  2
AcDmAbsAxisDef
  3
AcMechDwgViewMgmt
 90
    33792
280
     0
281
     0
  0
CLASS
  1
EDGEID
  2
AcAdEdgeId
  3
DesignerServices
 90
    33792
280
     0
281
     0
  0
CLASS
  1
ACADPARTLINEDGRES
  2
AcAdPartLinEdgRes
  3
AdGrefServices
 90
    33792
280
     0
281
     0
  0
CLASS
  1
AM_GREF_AXIS
  2
AcDmGrefAxisDef
  3
AcMechDwgViewMgmt
 90
    33792
280
     0
281
     0
  0
CLASS
  1
AM_BASE_VIEW_ORIENT
  2
AcDmBaseViewOr
  3
AcMechDwgViewMgmt
 90
    33792
280
     0
281
     0
  0
CLASS
  1
AM_DWG_VIEWPORT
  2
AcDmViewport
  3
AcMechDwgViewMgmt
 90
    33792
280
     0
281
     0
  0
CLASS
  1
AM_VIEW_DISPLAY
  2
AcDmDwgViewDisplay
  3
AcMechDwgViewMgmt
 90
    33792
280
     0
281
     0
  0
CLASS
  1
AM_CLDFLTS
  2
AcDmClDflts
  3
AcMechDwgViewMgmt
 90
    33792
280
     0
281
     0
  0
CLASS
  1
AM_BASE_VIEW
  2
AcDmBaseView
  3
AcMechDwgViewMgmt
 90
    33792
280
     0
281
     0
  0
CLASS
  1
ACMEPLINE
  2
AcImPlineDisplay
  3
AcMeServices
 90
    33792
280
     0
281
     1
  0
CLASS
  1
AM_ORTHO_VIEW_ORIENT
  2
AcDmOrthoViewOr
  3
AcMechDwgViewMgmt
 90
    33792
280
     0
281
     0
  0
CLASS
  1
AM_ORTHO_VIEW
  2
AcDmOrthoView
  3
AcMechDwgViewMgmt
 90
    33792
280
     0
281
     0
  0
CLASS
  1
ACDMPARTVIEWDATA
  2
AcDmPartViewData
  3
AcMechDwgViewMgmt
 90
    33792
280
     0
281
     0
  0
CLASS
  1
ACDMDISPLAYATTRIBS
  2
AcDmDisplayAttribs
  3
AcMechDwgViewMgmt
 90
    33792
280
     0
281
     0
  0
CLASS
  1
ACDMBODYINSTANCEDATA
  2
AcDmBodyInstanceData
  3
AcMechDwgViewMgmt
 90
    33792
280
     0
281
     0
  0
CLASS
  1
ACDMVWEDLINE
  2
AcDmViewEdgeLine
  3
AcMechDwgViewMgmt
 90
    33792
280
     0
281
     1
  0
CLASS
  1
ACDMVWEDCIRC
  2
AcDmViewEdgeCircle
  3
AcMechDwgViewMgmt
 90
    33792
280
     0
281
     1
  0
CLASS
  1
ACDMVWEDARC
  2
AcDmViewEdgeArc
  3
AcMechDwgViewMgmt
 90
    33792
280
     0
281
     1
  0
CLASS
  1
AM_ADCIRCTRLINE
  2
AcAdBullsEyeCl
  3
DesignerServices
 90
    33792
280
     0
281
     0
  0
CLASS
  1
ACDMVWEDSPLINE
  2
AcDmViewEdgeSpline
  3
AcMechDwgViewMgmt
 90
    33792
280
     0
281
     1
  0
CLASS
  1
AM_ADLINCTRLINE
  2
AcAdLineCl
  3
DesignerServices
 90
    33792
280
     0
281
     0
  0
CLASS
  1
ACDMVIEWGEOM
  2
AcDmViewGeometry
  3
AcMechDwgViewMgmt
 90
    33792
280
     0
281
     1
  0
CLASS
  1
ACMELINEARARROW
  2
AcImLinearArrowDisplay
  3
AcMeServices
 90
    33792
280
     0
281
     1
  0
CLASS
  1
ACMETEXT
  2
AcImTextDisplay
  3
AcMeServices
 90
    33792
280
     0
281
     1
  0
CLASS
  1
ADPART
  2
AcAdPart
  3
DesignerServices
 90
    33792
280
     0
281
     1
  0
CLASS
  1
ADBASE
  2
AcAdBase
  3
DesignerServices
 90
    33792
280
     0
281
     0
  0
CLASS
  1
BODYID
  2
AcAdBodyId
  3
DesignerServices
 90
    33792
280
     0
281
     0
  0
CLASS
  1
WORKPLANEDISPLAYMGR
  2
AcAdDisplayMgr
  3
DesignerServices
 90
    33792
280
     0
281
     0
  0
CLASS
  1
NEWSTDPARTPARLIST
  2
AmgNewParListFiler
  3
"AmgParList|Product Description: AutoCAD Mechanical|Company: Autodesk, Inc."
 90
    36863
280
     0
281
     0
  0
CLASS
  1
ADDATUMPLANEABS
  2
AcAdDatumPlaneAbs
  3
DesignerServices
 90
    33792
280
     0
281
     0
  0
CLASS
  1
ADDATUMAXISABS
  2
AcAdDatumAxisAbs
  3
DesignerServices
 90
    33792
280
     0
281
     0
  0
CLASS
  1
ADDATUMORIENTEDPLANE
  2
AcAdDatumOrientedPlane
  3
DesignerServices
 90
    33792
280
     0
281
     0
  0
CLASS
  1
AMDTFORMULAUPDATEDISPATCHER
  2
AmdtFormulaUpdateDispatcher
  3
AcMeServices
 90
    33792
280
     0
281
     0
  0
CLASS
  1
DATUMPLANEDISPLAY
  2
AcAdDatumPlaneDisplay
  3
DesignerServices
 90
    33792
280
     0
281
     1
  0
CLASS
  1
ADWORKPOINTDISPLAY
  2
AcAdWorkPointDisplay
  3
DesignerServices
 90
    33792
280
     0
281
     1
  0
CLASS
  1
ADVIRTUALPOINTWORKPOINTFREE
  2
AcAdVirtualPointWorkPointFree
  3
DesignerServices
 90
    33792
280
     0
281
     0
  0
CLASS
  1
ACADCONSPOINT
  2
AcAdConstrainedPoint
  3
DesignerServices
 90
    33792
280
     0
281
     0
  0
CLASS
  1
ACADREFLINEACAD
  2
AcAdVirtualReferenceLine
  3
DesignerServices
 90
    33792
280
     0
281
     0
  0
CLASS
  1
ACADCONSLINE
  2
AcAdConstrainedLine
  3
DesignerServices
 90
    33792
280
     0
281
     0
  0
CLASS
  1
ACADCONSGROUP
  2
AcAdConstraintGroup
  3
DesignerServices
 90
    33792
280
     0
281
     0
  0
CLASS
  1
ADWORKPOINTSKETCH
  2
AcAdWorkPointSketch
  3
DesignerServices
 90
    33792
280
     0
281
     0
  0
CLASS
  1
ACADPARTDATUMPOINTRES
  2
AcAdPartDatumPointRes
  3
AdGrefServices
 90
    33792
280
     0
281
     0
  0
CLASS
  1
DATUMAXISDISPLAY
  2
AcAdDatumAxisDisplay
  3
DesignerServices
 90
    33792
280
     0
281
     1
  0
CLASS
  1
ADDATUMAXISSKETCH
  2
AcAdDatumAxisSketch
  3
DesignerServices
 90
    33792
280
     0
281
     0
  0
CLASS
  1
DEPEDGEFEATUREORDERING
  2
AcAdDepEdgeFeatureOrdering
  3
DesignerServices
 90
    33792
280
     0
281
     0
  0
CLASS
  1
ACAD_LINE
  2
AcAdLine
  3
DesignerServices
 90
    33792
280
     0
281
     1
  0
CLASS
  1
ACADLINEACAD
  2
AcAdVirtualBoundedLineAcad
  3
DesignerServices
 90
    33792
280
     0
281
     0
  0
CLASS
  1
ACADIMPPTACAD
  2
AcAdVirtualImplicitPoint
  3
DesignerServices
 90
    33792
280
     0
281
     0
  0
CLASS
  1
ADPCURCNS
  2
AcAdPointCurveConstr
  3
DesignerServices
 90
    33792
280
     0
281
     0
  0
CLASS
  1
ADAXISPROFILE
  2
AcAdAxisProfile
  3
DesignerServices
 90
    33792
280
     0
281
     0
  0
CLASS
  1
ACADPARTAXISRES
  2
AcAdPartAxisRes
  3
AdGrefServices
 90
    33792
280
     0
281
     0
  0
CLASS
  1
ACRFATTGENMGR
  2
AcRfAttGeneralMgr
  3
AcAttribServices
 90
     1024
280
     0
281
     0
  0
CLASS
  1
ACRFOBJATTMGR
  2
AcRfObjAttGroupMgr
  3
AcAttribServices
 90
     1024
280
     0
281
     0
  0
CLASS
  1
ACRFMCADAPIATTHOLDER
  2
AcRfMCADAPIAttHolder
  3
AcAttribServices
 90
     1024
280
     0
281
     0
  0
CLASS
  1
AMDTSYSATTR
  2
AmdtSystemAttribute
  3
AcAttribServices
 90
     1024
280
     0
281
     0
  0
CLASS
  1
ACAMROTVECTORSYMBOL
  2
AcAmRotVectorSymbol
  3
DesignerAssemblies
 90
    33792
280
     0
281
     0
  0
CLASS
  1
ACAMVECTORSYMBOL
  2
AcAmVectorSymbol
  3
DesignerAssemblies
 90
    33792
280
     0
281
     0
  0
CLASS
  1
ACAMVIEWREACTOR
  2
AcAmViewReactor
  3
DesignerAssemblies
 90
    33792
280
     0
281
     0
  0
CLASS
  1
AMVIEW
  2
AcAmView
  3
DesignerAssemblies
 90
    33792
280
     0
281
     0
  0
CLASS
  1
ACAMVIEWCONTEXT
  2
AcAmViewContext
  3
DesignerAssemblies
 90
    33792
280
     0
281
     0
  0
CLASS
  1
ACAMCOMPENTVIEW
  2
AcAmCompEntView
  3
DesignerAssemblies
 90
    33792
280
     0
281
     1
  0
CLASS
  1
ACAMCOMPVIEWREACTOR
  2
AcAmGrCompViewReactor
  3
DesignerAssemblies
 90
    33792
280
     0
281
     0
  0
CLASS
  1
ACAMTRAIL
  2
AcAmTrail
  3
DesignerAssemblies
 90
    33792
280
     0
281
     0
  0
CLASS
  1
ACAMVECTORTWEAK
  2
AcAmVectorTweak
  3
DesignerAssemblies
 90
    33792
280
     0
281
     0
  0
CLASS
  1
ACAMVIEWENTITYFILTER
  2
AcAmViewEntityFilter
  3
DesignerAssemblies
 90
    33792
280
     0
281
     0
  0
CLASS
  1
FACEID
  2
AcAdFaceId
  3
DesignerServices
 90
    33792
280
     0
281
     0
  0
CLASS
  1
DEPEDGESECONDARYDEPID
  2
AcAdDepEdgeSecondaryDepId
  3
DesignerServices
 90
    33792
280
     0
281
     0
  0
CLASS
  1
ACADPARTPLANARFACERES
  2
AcAdPartPlanarFaceRes
  3
AdGrefServices
 90
    33792
280
     0
281
     0
  0
CLASS
  1
AM_ISO_VIEW_ORIENT
  2
AcDmIsoViewOr
  3
AcMechDwgViewMgmt
 90
    33792
280
     0
281
     0
  0
CLASS
  1
AM_ISO_VIEW
  2
AcDmIsoView
  3
AcMechDwgViewMgmt
 90
    33792
280
     0
281
     0
  0
CLASS
  1
ACIMLINEARTWEAKDISPLAY
  2
AcImLinearTweakDisplay
  3
DesignerAssemblies
 90
    33792
280
     0
281
     1
  0
CLASS
  1
ACMBOM
  2
AcmBom
  3
"AcmSymBB|Product Description: AutoCAD Mechanical|Company: Autodesk, Inc."
 90
    33792
280
     0
281
     0
  0
CLASS
  1
ACMBOMROW
  2
AcmBomRow
  3
"AcmSymBB|Product Description: AutoCAD Mechanical|Company: Autodesk, Inc."
 90
    33792
280
     0
281
     0
  0
CLASS
  1
ACMPICKOBJ
  2
AcmPickEnt
  3
"AcmSymBB|Product Description: AutoCAD Mechanical|Company: Autodesk, Inc."
 90
    33792
280
     0
281
     1
  0
CLASS
  1
ACMBALLOON
  2
AcmBalloon
  3
"AcmSymBB|Product Description: AutoCAD Mechanical|Company: Autodesk, Inc."
 90
    36863
280
     0
281
     1
  0
CLASS
  1
AM_VWNOTEADAPTER
  2
AcDmViewAnnotAdapter
  3
AcMechDwgViewMgmt
 90
    33792
280
     0
281
     0
  0
CLASS
  1
ACDMVWEDELLIPSE
  2
AcDmViewEdgeEllipse
  3
AcMechDwgViewMgmt
 90
    33792
280
     0
281
     1
  0
CLASS
  1
DIMASSOC
  2
AcDbDimAssoc
  3
"AcDbDimAssoc|Product Desc:     AcDim ARX App For Dimension|Company:          Autodesk, Inc.|WEB Address:      www.autodesk.com"
 90
        0
280
     0
281
     0
  0
CLASS
  1
TABLESTYLE
  2
AcDbTableStyle
  3
ObjectDBX Classes
 90
     4095
280
     0
281
     0
  0
CLASS
  1
VAACXREFPANELOBJECT
  2
VaAcXREFPanelObject
  3
VAAC_ADDIN
 90
    32768
280
     1
281
     0
  0
CLASS
  1
VAACIMAGEINVENTORY
  2
VaAcImageInventory
  3
VAAC_ADDIN
 90
    32768
280
     1
281
     0
  0
CLASS
  1
MATERIAL
  2
AcDbMaterial
  3
ObjectDBX Classes
 90
     1153
280
     0
281
     0
  0
CLASS
  1
VISUALSTYLE
  2
AcDbVisualStyle
  3
ObjectDBX Classes
 90
     4095
280
     0
281
     0
  0
CLASS
  1
SCALE
  2
AcDbScale
  3
ObjectDBX Classes
 90
     1153
280
     0
281
     0
  0
CLASS
  1
MLEADERSTYLE
  2
AcDbMLeaderStyle
  3
ACDB_MLEADERSTYLE_CLASS
 90
     4095
280
     0
281
     0
  0
CLASS
  1
ACMTAPERSTANDARDANSI
  2
AcmTaperStdANSI
  3
"Amdt_StdImp|Product Description: AutoCAD Mechanical|Company: Autodesk, Inc."
 90
     1024
280
     0
281
     0
  0
CLASS
  1
ACMANOOTATIONVIEWSTANDARDANSI
  2
AmdtAnViewStdANSI
  3
"Amdt_StdImp|Product Description: AutoCAD Mechanical|Company: Autodesk, Inc."
 90
     1024
280
     0
281
     0
  0
CLASS
  1
CELLSTYLEMAP
  2
AcDbCellStyleMap
  3
ObjectDBX Classes
 90
     1152
280
     0
281
     0
  0
CLASS
  1
SOLID_BACKGROUND
  2
AcDbSolidBackground
  3
SCENEOE
 90
     4095
280
     0
281
     0
  0
CLASS
  1
NPOCOLLECTION
  2
AcDbImpNonPersistentObjectsCollection
  3
ObjectDBX Classes
 90
     1153
280
     0
281
     0
  0
CLASS
  1
AMDTNOTETEMPLATEDB
  2
AmdtNoteTemplateDB
  3
AcmSymBB|Product Description: AutoCAD Mechanical|Company: Autodesk, Inc.
 90
     1024
280
     0
281
     0
  0
ENDSEC
  0
SECTION
  2
TABLES
  0
TABLE
  2
VPORT
  5
27
330
0
100
AcDbSymbolTable
 70
     1
  0
VPORT
  5
28
330
27
100
AcDbSymbolTableRecord
100
AcDbViewportTableRecord
  2
*Active
 70
     0
 10
0.0
 20
0.0
 11
1.0
 21
1.0
 12
-5.556897054547398
 22
-1.856837995280125
 13
0.0
 23
0.0
 14
0.125
 24
0.125
 15
1.0
 25
1.0
 16
0.0
 26
0.0
 36
1.0
 17
9.673112354891635
 27
4.238062573543517
 37
0.0
 40
5.371752404840307
 41
2.151181102362204
 42
50.0
 43
0.0
 44
0.0
 50
0.0
 51
0.0
 71
     0
 72
 20000
 73
     1
 74
     1
 75
     0
 76
     0
 77
     0
 78
     0
281
     2
 65
     0
110
0.0
120
0.0
130
0.0
111
1.0
121
0.0
131
0.0
112
0.0
122
1.0
132
0.0
 79
     0
146
0.0
  0
ENDTAB
  0
TABLE
  2
LTYPE
  5
22
330
0
100
AcDbSymbolTable
 70
    10
  0
LTYPE
  5
23
330
22
100
AcDbSymbolTableRecord
100
AcDbLinetypeTableRecord
  2
ByBlock
 70
     0
  3

 72
    65
 73
     0
 40
0.0
  0
LTYPE
  5
24
330
22
100
AcDbSymbolTableRecord
100
AcDbLinetypeTableRecord
  2
ByLayer
 70
     0
  3

 72
    65
 73
     0
 40
0.0
  0
LTYPE
  5
12
330
22
100
AcDbSymbolTableRecord
100
AcDbLinetypeTableRecord
  2
Continuous
 70
     0
  3
Solid line
 72
    65
 73
     0
 40
0.0
  0
LTYPE
  5
1BB
330
22
100
AcDbSymbolTableRecord
100
AcDbLinetypeTableRecord
  2
CENTER
 70
     0
  3
Center ____ _ ____ _ ____ _ ____ _ ____ _ ____
 72
    65
 73
     4
 40
2.0
 49
1.25
 74
     0
 49
-0.25
 74
     0
 49
0.25
 74
     0
 49
-0.25
 74
     0
  0
LTYPE
  5
2AE
330
22
100
AcDbSymbolTableRecord
100
AcDbLinetypeTableRecord
  2
HIDDEN
 70
     0
  3
Hidden __ __ __ __ __ __ __ __ __ __ __ __ __ _
 72
    65
 73
     2
 40
0.375
 49
0.25
 74
     0
 49
-0.125
 74
     0
  0
LTYPE
  5
2AF
330
22
100
AcDbSymbolTableRecord
100
AcDbLinetypeTableRecord
  2
PHANTOM2
 70
     0
  3
Phantom (.5x) ___ _ _ ___ _ _ ___ _ _ ___ _ _
 72
    65
 73
     6
 40
1.25
 49
0.625
 74
     0
 49
-0.125
 74
     0
 49
0.125
 74
     0
 49
-0.125
 74
     0
 49
0.125
 74
     0
 49
-0.125
 74
     0
  0
LTYPE
  5
2FD
330
22
100
AcDbSymbolTableRecord
100
AcDbLinetypeTableRecord
  2
ASULTYPE
 70
     0
  3
Solid line
 72
    65
 73
     2
 40
3.0
 49
2.5
 74
     0
 49
0.5
 74
     0
  0
LTYPE
  5
2FE
330
22
100
AcDbSymbolTableRecord
100
AcDbLinetypeTableRecord
  2
ASVLTYPE
 70
     0
  3
__ __ __ __ __ __ __ __ __ __ __ __ __ __ __ __ __ __ __ __ __
 72
    65
 73
     2
 40
0.75
 49
0.5
 74
     0
 49
-0.25
 74
     0
  0
LTYPE
  5
348
330
22
100
AcDbSymbolTableRecord
100
AcDbLinetypeTableRecord
  2
CENTER2
 70
     0
  3
Center (.5x) ___ _ ___ _ ___ _ ___ _ ___ _ ___
 72
    65
 73
     4
 40
1.125
 49
0.75
 74
     0
 49
-0.125
 74
     0
 49
0.125
 74
     0
 49
-0.125
 74
     0
  0
LTYPE
  5
349
330
22
100
AcDbSymbolTableRecord
100
AcDbLinetypeTableRecord
  2
HIDDEN2
 70
     0
  3
Hidden (.5x) _ _ _ _ _ _ _ _ _ _ _ _ _ _ _ _ _
 72
    65
 73
     2
 40
0.1875
 49
0.125
 74
     0
 49
-0.0625
 74
     0
  0
LTYPE
  5
359
330
22
100
AcDbSymbolTableRecord
100
AcDbLinetypeTableRecord
  2
ACANSTGB
 70
     0
  3
__ . . __ . .
 72
    65
 73
     6
 40
0.35433070866
 49
0.15748031496
 74
     0
 49
-0.03937007874
 74
     0
 49
0.03937007874
 74
     0
 49
-0.03937007874
 74
     0
 49
0.03937007874
 74
     0
 49
-0.03937007874
 74
     0
  0
LTYPE
  5
35A
330
22
100
AcDbSymbolTableRecord
100
AcDbLinetypeTableRecord
  2
ACANSTGL
 70
     0
  3
_ _ _ _ _
 72
    65
 73
     2
 40
0.11811023622
 49
0.07874015748
 74
     0
 49
-0.03937007874
 74
     0
  0
ENDTAB
  0
TABLE
  2
LAYER
  5
1C
102
{ACAD_XDICTIONARY
360
1D
102
}
330
0
100
AcDbSymbolTable
 70
     5
  0
LAYER
  5
5
102
{ACAD_XDICTIONARY
360
37A
102
}
330
1C
100
AcDbSymbolTableRecord
100
AcDbLayerTableRecord
  2
0
 70
     0
 62
     7
  6
Continuous
370
    -3
390
6
  0
LAYER
  5
6E
102
{ACAD_XDICTIONARY
360
37C
102
}
330
1C
100
AcDbSymbolTableRecord
100
AcDbLayerTableRecord
  2
AM_VIS
 70
     0
 62
     7
  6
Continuous
370
    30
390
6
  0
LAYER
  5
1BA
102
{ACAD_XDICTIONARY
360
37E
102
}
330
1C
100
AcDbSymbolTableRecord
100
AcDbLayerTableRecord
  2
CENTER
 70
     0
 62
     5
  6
CENTER
370
    -3
390
6
  0
LAYER
  5
1B8
102
{ACAD_XDICTIONARY
360
380
102
}
330
1C
100
AcDbSymbolTableRecord
100
AcDbLayerTableRecord
  2
L-INSPECTION
 70
     0
 62
     5
  6
Continuous
370
    -3
390
6
  0
LAYER
  5
1C0
102
{ACAD_XDICTIONARY
360
382
102
}
330
1C
100
AcDbSymbolTableRecord
100
AcDbLayerTableRecord
  2
10
 70
     0
 62
     7
  6
Continuous
370
    -3
390
6
  0
ENDTAB
  0
TABLE
  2
STYLE
  5
1F
330
0
100
AcDbSymbolTable
 70
     4
  0
STYLE
  5
20
330
1F
100
AcDbSymbolTableRecord
100
AcDbTextStyleTableRecord
  2
STANDARD
 70
     0
 40
0.0
 41
1.0
 50
0.0
 71
     0
 42
0.2
  3
ROMANS.SHX
  4

  0
STYLE
  5
47
330
1F
100
AcDbSymbolTableRecord
100
AcDbTextStyleTableRecord
  2
USER2
 70
     0
 40
0.0
 41
1.0
 50
0.0
 71
     0
 42
0.2
  3
SIMPLEX.SHX
  4

  0
STYLE
  5
34A
330
1F
100
AcDbSymbolTableRecord
100
AcDbTextStyleTableRecord
  2
ACANSTS
 70
     0
 40
1.0
 41
1.0
 50
0.0
 71
     0
 42
0.2
  3
romans.shx
  4

  0
STYLE
  5
358
330
1F
100
AcDbSymbolTableRecord
100
AcDbTextStyleTableRecord
  2
ACANSGDT
 70
     0
 40
0.0
 41
1.0
 50
0.0
 71
     0
 42
0.2
  3
amgdt.shx
  4

  0
ENDTAB
  0
TABLE
  2
VIEW
  5
25
330
0
100
AcDbSymbolTable
 70
     1
  0
ENDTAB
  0
TABLE
  2
UCS
  5
26
330
0
100
AcDbSymbolTable
 70
     0
  0
ENDTAB
  0
TABLE
  2
APPID
  5
2B
330
0
100
AcDbSymbolTable
 70
    15
  0
APPID
  5
2C
330
2B
100
AcDbSymbolTableRecord
100
AcDbRegAppTableRecord
  2
ACAD
 70
     0
  0
APPID
  5
247
330
2B
100
AcDbSymbolTableRecord
100
AcDbRegAppTableRecord
  2
ACATTRIBSERVICES
 70
     0
  0
APPID
  5
271
330
2B
100
AcDbSymbolTableRecord
100
AcDbRegAppTableRecord
  2
ACAD_MLEADERVER
 70
     0
  0
APPID
  5
27A
330
2B
100
AcDbSymbolTableRecord
100
AcDbRegAppTableRecord
  2
GENIUS_GENDIM_13
 70
     0
  0
APPID
  5
27B
330
2B
100
AcDbSymbolTableRecord
100
AcDbRegAppTableRecord
  2
GENIUS_GENDTOL_13
 70
     0
  0
APPID
  5
27C
330
2B
100
AcDbSymbolTableRecord
100
AcDbRegAppTableRecord
  2
GENIUS_GE3DTOL_13
 70
     0
  0
APPID
  5
27F
330
2B
100
AcDbSymbolTableRecord
100
AcDbRegAppTableRecord
  2
MCAD_NO_VIS
 70
     0
  0
APPID
  5
280
330
2B
100
AcDbSymbolTableRecord
100
AcDbRegAppTableRecord
  2
ACAD_TEMP_GRAPHIC
 70
     0
  0
APPID
  5
2B1
330
2B
100
AcDbSymbolTableRecord
100
AcDbRegAppTableRecord
  2
AD_DRAW
 70
     0
  0
APPID
  5
2FF
330
2B
100
AcDbSymbolTableRecord
100
AcDbRegAppTableRecord
  2
ASURF_PCURVE_APPNAME
 70
     0
  0
APPID
  5
304
330
2B
100
AcDbSymbolTableRecord
100
AcDbRegAppTableRecord
  2
AMG_3D2D_5.0
 70
     0
  0
APPID
  5
335
330
2B
100
AcDbSymbolTableRecord
100
AcDbRegAppTableRecord
  2
DESIGNERASSEMBLIES
 70
     0
  0
APPID
  5
33F
330
2B
100
AcDbSymbolTableRecord
100
AcDbRegAppTableRecord
  2
ACADM_DIM_EDIT
 70
     0
  0
APPID
  5
340
330
2B
100
AcDbSymbolTableRecord
100
AcDbRegAppTableRecord
  2
AMDT_DM_ADJ
 70
     0
  0
APPID
  5
392
330
2B
100
AcDbSymbolTableRecord
100
AcDbRegAppTableRecord
  2
ACAD_DSTYLE_DIMARC_LENGTH_SYMBOL
 70
     0
  0
ENDTAB
  0
TABLE
  2
DIMSTYLE
  5
2D
330
0
100
AcDbSymbolTable
 70
     7
100
AcDbDimStyleTable
 71
     2
340
2E
340
2F
  0
DIMSTYLE
105
2E
330
2D
100
AcDbSymbolTableRecord
100
AcDbDimStyleTableRecord
  2
Standard
 70
     0
 41
0.125
 43
0.24
 44
0.125
140
0.125
141
0.03
176
     1
177
     1
178
     1
271
     3
272
     3
340
20
371
    -1
372
    -1
  0
DIMSTYLE
105
2F
330
2D
100
AcDbSymbolTableRecord
100
AcDbDimStyleTableRecord
  2
AM_ANSI
 70
     0
  4
mm
 41
0.1
 42
0.05
 43
0.5
 44
0.1
 47
0.1
 48
0.1
 78
     7
 79
     2
140
0.12
141
0.0
146
0.71
147
0.06
176
   256
177
   256
178
     2
274
     4
284
     7
340
20
371
    -1
372
    -1
  0
DIMSTYLE
105
363
330
2D
100
AcDbSymbolTableRecord
100
AcDbDimStyleTableRecord
  2
AM_ANSI$3
 70
     0
  4
mm
 41
0.1
 42
0.05
 43
0.5
 44
0.1
 47
0.1
 48
0.1
 78
     7
 79
     2
140
0.12
141
0.0
146
0.71
147
0.06
176
   256
177
   256
178
     2
274
     4
284
     7
288
     1
289
     0
340
20
371
    -1
372
    -1
1001
ACAD_DSTYLE_DIMARC_LENGTH_SYMBOL
1070
   379
1070
     1
  0
DIMSTYLE
105
364
330
2D
100
AcDbSymbolTableRecord
100
AcDbDimStyleTableRecord
  2
AM_ANSI$4
 70
     0
  4
mm
 41
0.1
 42
0.05
 43
0.5
 44
0.1
 47
0.1
 48
0.1
 78
     7
 79
     2
140
0.12
141
0.0
146
0.71
147
0.06
176
   256
177
   256
178
     2
274
     4
284
     7
288
     1
289
     0
340
20
371
    -1
372
    -1
1001
ACAD_DSTYLE_DIMARC_LENGTH_SYMBOL
1070
   379
1070
     1
  0
DIMSTYLE
105
365
330
2D
100
AcDbSymbolTableRecord
100
AcDbDimStyleTableRecord
  2
AM_ANSI$7
 70
     0
  4
mm
 41
0.1
 42
0.05
 43
0.5
 44
0.1
 47
0.1
 48
0.1
 78
     7
 79
     2
140
0.24
141
0.0
146
0.71
147
0.06
176
   256
177
   256
178
     2
274
     4
284
     7
340
20
371
    -1
372
    -1
1001
ACAD_DSTYLE_DIMARC_LENGTH_SYMBOL
1070
   379
1070
     1
  0
DIMSTYLE
105
366
330
2D
100
AcDbSymbolTableRecord
100
AcDbDimStyleTableRecord
  2
AM_ANSI$SF
 70
     0
  4
mm
 41
0.1
 42
0.05
 43
0.5
 44
0.1
 47
0.1
 48
0.1
 75
     1
 76
     1
 78
     7
 79
     2
140
0.12
141
0.0
146
0.71
147
0.06
176
   256
177
   256
178
     2
274
     4
284
     7
340
20
371
    -1
372
    -1
1001
ACAD_DSTYLE_DIMARC_LENGTH_SYMBOL
1070
   379
1070
     1
  0
DIMSTYLE
105
36B
330
2D
100
AcDbSymbolTableRecord
100
AcDbDimStyleTableRecord
  2
AM_ANSI$SH
 70
     0
  4
mm
 41
0.1
 42
0.05
 43
0.5
 44
0.1
 47
0.1
 48
0.1
 75
     1
 76
     1
 78
     7
 79
     2
140
0.12
141
0.0
146
0.71
147
0.06
173
     1
176
   256
177
   256
178
     2
274
     4
284
     7
340
20
343
367
371
    -1
372
    -1
1001
ACAD_DSTYLE_DIMARC_LENGTH_SYMBOL
1070
   379
1070
     1
  0
ENDTAB
  0
TABLE
  2
BLOCK_RECORD
  5
1
330
0
100
AcDbSymbolTable
 70
    10
  0
BLOCK_RECORD
  5
2
102
{ACAD_XDICTIONARY
360
3
102
}
330
1
100
AcDbSymbolTableRecord
100
AcDbBlockTableRecord
  2
*Model_Space
340
14
  0
BLOCK_RECORD
  5
16
330
1
100
AcDbSymbolTableRecord
100
AcDbBlockTableRecord
  2
*Paper_Space
340
19
  0
BLOCK_RECORD
  5
190
330
1
100
AcDbSymbolTableRecord
100
AcDbBlockTableRecord
  2
*U0
340
0
102
{BLKREFS
331
18F
102
}
  0
BLOCK_RECORD
  5
195
330
1
100
AcDbSymbolTableRecord
100
AcDbBlockTableRecord
  2
*U1
340
0
102
{BLKREFS
331
194
102
}
  0
BLOCK_RECORD
  5
19A
330
1
100
AcDbSymbolTableRecord
100
AcDbBlockTableRecord
  2
*U2
340
0
102
{BLKREFS
331
199
102
}
  0
BLOCK_RECORD
  5
19F
330
1
100
AcDbSymbolTableRecord
100
AcDbBlockTableRecord
  2
*U3
340
0
102
{BLKREFS
331
19E
102
}
  0
BLOCK_RECORD
  5
1A4
330
1
100
AcDbSymbolTableRecord
100
AcDbBlockTableRecord
  2
*U4
340
0
102
{BLKREFS
331
1A3
102
}
  0
BLOCK_RECORD
  5
1A9
330
1
100
AcDbSymbolTableRecord
100
AcDbBlockTableRecord
  2
*U5
340
0
102
{BLKREFS
331
1A8
102
}
  0
BLOCK_RECORD
  5
1AE
330
1
100
AcDbSymbolTableRecord
100
AcDbBlockTableRecord
  2
*U6
340
0
102
{BLKREFS
331
1AD
102
}
  0
BLOCK_RECORD
  5
1B3
330
1
100
AcDbSymbolTableRecord
100
AcDbBlockTableRecord
  2
*U7
340
0
102
{BLKREFS
331
1B2
102
}
  0
BLOCK_RECORD
  5
367
330
1
100
AcDbSymbolTableRecord
100
AcDbBlockTableRecord
  2
GENAXEH
340
0
  0
ENDTAB
  0
ENDSEC
  0
SECTION
  2
BLOCKS
  0
BLOCK
  5
4
330
2
100
AcDbEntity
  8
0
100
AcDbBlockBegin
  2
*Model_Space
 70
     0
 10
0.0
 20
0.0
 30
0.0
  3
*Model_Space
  1

  0
ENDBLK
  5
13
330
2
100
AcDbEntity
  8
0
100
AcDbBlockEnd
  0
BLOCK
  5
17
330
16
100
AcDbEntity
 67
     1
  8
0
100
AcDbBlockBegin
  2
*Paper_Space
 70
     0
 10
0.0
 20
0.0
 30
0.0
  3
*Paper_Space
  1

  0
ENDBLK
  5
18
330
16
100
AcDbEntity
 67
     1
  8
0
100
AcDbBlockEnd
  0
BLOCK
  5
191
330
190
100
AcDbEntity
  8
0
  6
ByBlock
 62
     2
100
AcDbBlockBegin
  2
*U0
 70
     1
 10
0.0
 20
0.0
 30
0.0
  3
*U0
  1

  0
TEXT
  5
192
330
190
100
AcDbEntity
  8
0
  6
ByBlock
 62
     2
100
AcDbText
 10
15.253
 20
1.7495
 30
0.0
 40
0.094
  1
 
 41
0.8000000000000063
 72
     5
 11
15.3282
 21
1.7495
 31
0.0
100
AcDbText
  0
ENDBLK
  5
193
330
190
100
AcDbEntity
  8
0
100
AcDbBlockEnd
  0
BLOCK
  5
196
330
195
100
AcDbEntity
  8
0
  6
ByBlock
 62
     2
100
AcDbBlockBegin
  2
*U1
 70
     1
 10
0.0
 20
0.0
 30
0.0
  3
*U1
  1

  0
TEXT
  5
197
330
195
100
AcDbEntity
  8
0
  6
ByBlock
 62
     2
100
AcDbText
 10
15.253
 20
1.436999999999999
 30
0.0
 40
0.094
  1
 
 41
0.8000000000000063
 72
     5
 11
15.3282
 21
1.436999999999999
 31
0.0
100
AcDbText
  0
ENDBLK
  5
198
330
195
100
AcDbEntity
  8
0
100
AcDbBlockEnd
  0
BLOCK
  5
19B
330
19A
100
AcDbEntity
  8
0
  6
ByBlock
 62
     2
100
AcDbBlockBegin
  2
*U2
 70
     1
 10
0.0
 20
0.0
 30
0.0
  3
*U2
  1

  0
TEXT
  5
19C
330
19A
100
AcDbEntity
  8
0
  6
ByBlock
 62
     2
100
AcDbText
 10
15.253
 20
1.1245
 30
0.0
 40
0.094
  1
 
 41
0.8000000000000063
 72
     5
 11
15.3282
 21
1.1245
 31
0.0
100
AcDbText
  0
ENDBLK
  5
19D
330
19A
100
AcDbEntity
  8
0
100
AcDbBlockEnd
  0
BLOCK
  5
1A0
330
19F
100
AcDbEntity
  8
0
  6
ByBlock
 62
     2
100
AcDbBlockBegin
  2
*U3
 70
     1
 10
0.0
 20
0.0
 30
0.0
  3
*U3
  1

  0
TEXT
  5
1A1
330
19F
100
AcDbEntity
  8
0
  6
ByBlock
 62
     2
100
AcDbText
 10
15.253
 20
0.812
 30
0.0
 40
0.094
  1
 
 41
0.8000000000000063
 72
     5
 11
15.3282
 21
0.812
 31
0.0
100
AcDbText
  0
ENDBLK
  5
1A2
330
19F
100
AcDbEntity
  8
0
100
AcDbBlockEnd
  0
BLOCK
  5
1A5
330
1A4
100
AcDbEntity
  8
0
  6
ByBlock
 62
     2
100
AcDbBlockBegin
  2
*U4
 70
     1
 10
0.0
 20
0.0
 30
0.0
  3
*U4
  1

  0
TEXT
  5
1A6
330
1A4
100
AcDbEntity
  8
0
  6
ByBlock
 62
     2
100
AcDbText
 10
15.253
 20
1.7495
 30
0.0
 40
0.094
  1
 
 41
0.8000000000000063
 72
     5
 11
15.3282
 21
1.7495
 31
0.0
100
AcDbText
  0
ENDBLK
  5
1A7
330
1A4
100
AcDbEntity
  8
0
100
AcDbBlockEnd
  0
BLOCK
  5
1AA
330
1A9
100
AcDbEntity
  8
0
  6
ByBlock
 62
     2
100
AcDbBlockBegin
  2
*U5
 70
     1
 10
0.0
 20
0.0
 30
0.0
  3
*U5
  1

  0
TEXT
  5
1AB
330
1A9
100
AcDbEntity
  8
0
  6
ByBlock
 62
     2
100
AcDbText
 10
15.253
 20
1.436999999999999
 30
0.0
 40
0.094
  1
 
 41
0.8000000000000063
 72
     5
 11
15.3282
 21
1.436999999999999
 31
0.0
100
AcDbText
  0
ENDBLK
  5
1AC
330
1A9
100
AcDbEntity
  8
0
100
AcDbBlockEnd
  0
BLOCK
  5
1AF
330
1AE
100
AcDbEntity
  8
0
  6
ByBlock
 62
     2
100
AcDbBlockBegin
  2
*U6
 70
     1
 10
0.0
 20
0.0
 30
0.0
  3
*U6
  1

  0
TEXT
  5
1B0
330
1AE
100
AcDbEntity
  8
0
  6
ByBlock
 62
     2
100
AcDbText
 10
15.253
 20
1.1245
 30
0.0
 40
0.094
  1
 
 41
0.8000000000000063
 72
     5
 11
15.3282
 21
1.1245
 31
0.0
100
AcDbText
  0
ENDBLK
  5
1B1
330
1AE
100
AcDbEntity
  8
0
100
AcDbBlockEnd
  0
BLOCK
  5
1B4
330
1B3
100
AcDbEntity
  8
0
  6
ByBlock
 62
     2
100
AcDbBlockBegin
  2
*U7
 70
     1
 10
0.0
 20
0.0
 30
0.0
  3
*U7
  1

  0
TEXT
  5
1B5
330
1B3
100
AcDbEntity
  8
0
  6
ByBlock
 62
     2
100
AcDbText
 10
15.253
 20
0.812
 30
0.0
 40
0.094
  1
 
 41
0.8000000000000063
 72
     5
 11
15.3282
 21
0.812
 31
0.0
100
AcDbText
  0
ENDBLK
  5
1B6
330
1B3
100
AcDbEntity
  8
0
100
AcDbBlockEnd
  0
BLOCK
  5
369
330
367
100
AcDbEntity
  8
0
 62
     1
100
AcDbBlockBegin
  2
GENAXEH
 70
     0
 10
0.0
 20
0.0
 30
0.0
  3
GENAXEH
  1

  0
LINE
  5
368
330
367
100
AcDbEntity
  8
0
100
AcDbLine
 10
-1.0
 20
0.0
 30
0.0
 11
1.0
 21
0.0
 31
0.0
  0
ENDBLK
  5
36A
330
367
100
AcDbEntity
  8
0
 62
     1
100
AcDbBlockEnd
  0
ENDSEC
  0
SECTION
  2
ENTITIES
  0
LINE
  5
6D
330
2
100
AcDbEntity
  8
AM_VIS
100
AcDbLine
 10
2.013561452264905
 20
2.063982186708344
 30
0.0
 11
2.032598274051109
 21
2.087212500269775
 31
0.0
  0
LINE
  5
6F
330
2
100
AcDbEntity
  8
AM_VIS
100
AcDbLine
 10
2.013561452264905
 20
2.910445829105322
 30
0.0
 11
2.032598274051109
 21
2.887215515543892
 31
0.0
  0
LINE
  5
70
330
2
100
AcDbEntity
  8
AM_VIS
100
AcDbLine
 10
2.063561452264907
 20
2.063982186708343
 30
0.0
 11
2.082598274051109
 21
2.087212500269775
 31
0.0
  0
LINE
  5
71
330
2
100
AcDbEntity
  8
AM_VIS
100
AcDbLine
 10
2.063561452264907
 20
2.910445829105322
 30
0.0
 11
2.082598274051109
 21
2.887215515543892
 31
0.0
  0
LINE
  5
72
330
2
100
AcDbEntity
  8
AM_VIS
100
AcDbLine
 10
2.088559562468375
 20
2.879927804969549
 30
0.0
 11
2.09452289250754
 21
2.887214164556946
 31
0.0
  0
LINE
  5
73
330
2
100
AcDbEntity
  8
AM_VIS
100
AcDbLine
 10
2.088559562468375
 20
2.094500210844115
 30
0.0
 11
2.094522892507542
 21
2.087213851256719
 31
0.0
  0
LINE
  5
74
330
2
100
AcDbEntity
  8
AM_VIS
100
AcDbLine
 10
2.09452124416803
 20
2.087212500269775
 30
0.0
 11
2.113558065954231
 21
2.063982186708344
 31
0.0
  0
LINE
  5
75
330
2
100
AcDbEntity
  8
AM_VIS
100
AcDbLine
 10
2.09452124416803
 20
2.887215515543892
 30
0.0
 11
2.113558065954231
 21
2.910445829105322
 31
0.0
  0
LINE
  5
76
330
2
100
AcDbEntity
  8
AM_VIS
100
AcDbLine
 10
2.113561452264907
 20
2.063982186708343
 30
0.0
 11
2.132598274051109
 21
2.087212500269775
 31
0.0
  0
LINE
  5
77
330
2
100
AcDbEntity
  8
AM_VIS
100
AcDbLine
 10
2.113561452264905
 20
2.910445829105322
 30
0.0
 11
2.132598274051108
 21
2.887215515543892
 31
0.0
  0
LINE
  5
78
330
2
100
AcDbEntity
  8
AM_VIS
100
AcDbLine
 10
2.163561452264906
 20
2.063982186708343
 30
0.0
 11
2.182598274051108
 21
2.087212500269775
 31
0.0
  0
LINE
  5
79
330
2
100
AcDbEntity
  8
AM_VIS
100
AcDbLine
 10
2.163561452264906
 20
2.910445829105322
 30
0.0
 11
2.182598274051108
 21
2.887215515543892
 31
0.0
  0
LINE
  5
7A
330
2
100
AcDbEntity
  8
AM_VIS
100
AcDbLine
 10
2.132596625711596
 20
2.887214164556946
 30
0.0
 11
2.138559955750763
 21
2.879927804969549
 31
0.0
  0
LINE
  5
7B
330
2
100
AcDbEntity
  8
AM_VIS
100
AcDbLine
 10
2.113561452264907
 20
2.910445829105322
 30
0.0
 11
2.13259827405111
 21
2.887215515543892
 31
0.0
  0
LINE
  5
7C
330
2
100
AcDbEntity
  8
AM_VIS
100
AcDbLine
 10
2.113561452264907
 20
2.063982186708343
 30
0.0
 11
2.132598274051109
 21
2.087212500269775
 31
0.0
  0
LINE
  5
7D
330
2
100
AcDbEntity
  8
AM_VIS
100
AcDbLine
 10
2.132596625711596
 20
2.087213851256719
 30
0.0
 11
2.138559955750764
 21
2.094500210844115
 31
0.0
  0
LINE
  5
7E
330
2
100
AcDbEntity
  8
AM_VIS
100
AcDbLine
 10
2.138559562468373
 20
2.879927804969549
 30
0.0
 11
2.14452289250754
 21
2.887214164556946
 31
0.0
  0
LINE
  5
7F
330
2
100
AcDbEntity
  8
AM_VIS
100
AcDbLine
 10
2.138559562468373
 20
2.094500210844115
 30
0.0
 11
2.144522892507541
 21
2.087213851256719
 31
0.0
  0
LINE
  5
80
330
2
100
AcDbEntity
  8
AM_VIS
100
AcDbLine
 10
2.144521244168029
 20
2.087212500269775
 30
0.0
 11
2.163558065954231
 21
2.063982186708344
 31
0.0
  0
LINE
  5
81
330
2
100
AcDbEntity
  8
AM_VIS
100
AcDbLine
 10
2.144521244168029
 20
2.887215515543892
 30
0.0
 11
2.163558065954231
 21
2.910445829105322
 31
0.0
  0
LINE
  5
82
330
2
100
AcDbEntity
  8
AM_VIS
100
AcDbLine
 10
1.69452124416803
 20
2.887215515543892
 30
0.0
 11
1.713558065954233
 21
2.910445829105322
 31
0.0
  0
LINE
  5
83
330
2
100
AcDbEntity
  8
AM_VIS
100
AcDbLine
 10
1.69452124416803
 20
2.087212500269775
 30
0.0
 11
1.713558065954232
 21
2.063982186708344
 31
0.0
  0
LINE
  5
84
330
2
100
AcDbEntity
  8
AM_VIS
100
AcDbLine
 10
1.732596625711599
 20
2.887214164556946
 30
0.0
 11
1.738559955750764
 21
2.879927804969549
 31
0.0
  0
LINE
  5
85
330
2
100
AcDbEntity
  8
AM_VIS
100
AcDbLine
 10
1.713561452264908
 20
2.910445829105322
 30
0.0
 11
1.73259827405111
 21
2.887215515543892
 31
0.0
  0
LINE
  5
86
330
2
100
AcDbEntity
  8
AM_VIS
100
AcDbLine
 10
1.713561452264908
 20
2.063982186708343
 30
0.0
 11
1.73259827405111
 21
2.087212500269775
 31
0.0
  0
LINE
  5
87
330
2
100
AcDbEntity
  8
AM_VIS
100
AcDbLine
 10
1.732596625711599
 20
2.087213851256719
 30
0.0
 11
1.738559955750764
 21
2.094500210844115
 31
0.0
  0
LINE
  5
88
330
2
100
AcDbEntity
  8
AM_VIS
100
AcDbLine
 10
1.713561452264906
 20
2.063982186708343
 30
0.0
 11
1.73259827405111
 21
2.087212500269775
 31
0.0
  0
LINE
  5
89
330
2
100
AcDbEntity
  8
AM_VIS
100
AcDbLine
 10
1.713561452264908
 20
2.910445829105322
 30
0.0
 11
1.73259827405111
 21
2.887215515543892
 31
0.0
  0
LINE
  5
8A
330
2
100
AcDbEntity
  8
AM_VIS
100
AcDbLine
 10
1.74452124416803
 20
2.887215515543892
 30
0.0
 11
1.76355806595423
 21
2.910445829105322
 31
0.0
  0
LINE
  5
8B
330
2
100
AcDbEntity
  8
AM_VIS
100
AcDbLine
 10
1.74452124416803
 20
2.087212500269775
 30
0.0
 11
1.763558065954233
 21
2.063982186708344
 31
0.0
  0
LINE
  5
8C
330
2
100
AcDbEntity
  8
AM_VIS
100
AcDbLine
 10
1.782596625711596
 20
2.887214164556946
 30
0.0
 11
1.788559955750764
 21
2.879927804969549
 31
0.0
  0
LINE
  5
8D
330
2
100
AcDbEntity
  8
AM_VIS
100
AcDbLine
 10
1.763561452264907
 20
2.910445829105322
 30
0.0
 11
1.782598274051109
 21
2.887215515543892
 31
0.0
  0
LINE
  5
8E
330
2
100
AcDbEntity
  8
AM_VIS
100
AcDbLine
 10
1.763561452264907
 20
2.063982186708343
 30
0.0
 11
1.78259827405111
 21
2.087212500269775
 31
0.0
  0
LINE
  5
8F
330
2
100
AcDbEntity
  8
AM_VIS
100
AcDbLine
 10
1.782596625711599
 20
2.087213851256719
 30
0.0
 11
1.788559955750764
 21
2.094500210844115
 31
0.0
  0
LINE
  5
90
330
2
100
AcDbEntity
  8
AM_VIS
100
AcDbLine
 10
1.763561452264907
 20
2.063982186708343
 30
0.0
 11
1.78259827405111
 21
2.087212500269775
 31
0.0
  0
LINE
  5
91
330
2
100
AcDbEntity
  8
AM_VIS
100
AcDbLine
 10
1.763561452264907
 20
2.910445829105322
 30
0.0
 11
1.782598274051109
 21
2.887215515543892
 31
0.0
  0
LINE
  5
92
330
2
100
AcDbEntity
  8
AM_VIS
100
AcDbLine
 10
1.79452124416803
 20
2.887215515543892
 30
0.0
 11
1.81355806595423
 21
2.910445829105322
 31
0.0
  0
LINE
  5
93
330
2
100
AcDbEntity
  8
AM_VIS
100
AcDbLine
 10
1.794521244168029
 20
2.087212500269775
 30
0.0
 11
1.813558065954231
 21
2.063982186708343
 31
0.0
  0
LINE
  5
94
330
2
100
AcDbEntity
  8
AM_VIS
100
AcDbLine
 10
1.832596625711598
 20
2.887214164556946
 30
0.0
 11
1.838559955750764
 21
2.879927804969549
 31
0.0
  0
LINE
  5
95
330
2
100
AcDbEntity
  8
AM_VIS
100
AcDbLine
 10
1.813561452264907
 20
2.910445829105322
 30
0.0
 11
1.83259827405111
 21
2.887215515543892
 31
0.0
  0
LINE
  5
96
330
2
100
AcDbEntity
  8
AM_VIS
100
AcDbLine
 10
1.813561452264907
 20
2.063982186708343
 30
0.0
 11
1.83259827405111
 21
2.087212500269775
 31
0.0
  0
LINE
  5
97
330
2
100
AcDbEntity
  8
AM_VIS
100
AcDbLine
 10
1.832596625711598
 20
2.087213851256719
 30
0.0
 11
1.838559955750763
 21
2.094500210844115
 31
0.0
  0
LINE
  5
98
330
2
100
AcDbEntity
  8
AM_VIS
100
AcDbLine
 10
1.84452124416803
 20
2.887215515543892
 30
0.0
 11
1.86355806595423
 21
2.910445829105322
 31
0.0
  0
LINE
  5
99
330
2
100
AcDbEntity
  8
AM_VIS
100
AcDbLine
 10
1.84452124416803
 20
2.087212500269775
 30
0.0
 11
1.863558065954233
 21
2.063982186708344
 31
0.0
  0
LINE
  5
9A
330
2
100
AcDbEntity
  8
AM_VIS
100
AcDbLine
 10
1.882596625711596
 20
2.887214164556946
 30
0.0
 11
1.888559955750763
 21
2.879927804969549
 31
0.0
  0
LINE
  5
9B
330
2
100
AcDbEntity
  8
AM_VIS
100
AcDbLine
 10
1.863561452264907
 20
2.910445829105322
 30
0.0
 11
1.88259827405111
 21
2.887215515543892
 31
0.0
  0
LINE
  5
9C
330
2
100
AcDbEntity
  8
AM_VIS
100
AcDbLine
 10
1.863561452264907
 20
2.063982186708343
 30
0.0
 11
1.88259827405111
 21
2.087212500269775
 31
0.0
  0
LINE
  5
9D
330
2
100
AcDbEntity
  8
AM_VIS
100
AcDbLine
 10
1.882596625711599
 20
2.087213851256719
 30
0.0
 11
1.888559955750763
 21
2.094500210844115
 31
0.0
  0
LINE
  5
9E
330
2
100
AcDbEntity
  8
AM_VIS
100
AcDbLine
 10
1.894521244168029
 20
2.887215515543892
 30
0.0
 11
1.913558065954229
 21
2.910445829105322
 31
0.0
  0
LINE
  5
9F
330
2
100
AcDbEntity
  8
AM_VIS
100
AcDbLine
 10
1.894521244168029
 20
2.087212500269775
 30
0.0
 11
1.913558065954232
 21
2.063982186708344
 31
0.0
  0
LINE
  5
A0
330
2
100
AcDbEntity
  8
AM_VIS
100
AcDbLine
 10
1.932596625711598
 20
2.887214164556946
 30
0.0
 11
1.938559955750763
 21
2.879927804969549
 31
0.0
  0
LINE
  5
A1
330
2
100
AcDbEntity
  8
AM_VIS
100
AcDbLine
 10
1.913561452264907
 20
2.910445829105322
 30
0.0
 11
1.93259827405111
 21
2.887215515543892
 31
0.0
  0
LINE
  5
A2
330
2
100
AcDbEntity
  8
AM_VIS
100
AcDbLine
 10
1.913561452264907
 20
2.063982186708343
 30
0.0
 11
1.93259827405111
 21
2.087212500269775
 31
0.0
  0
LINE
  5
A3
330
2
100
AcDbEntity
  8
AM_VIS
100
AcDbLine
 10
1.9325966257116
 20
2.087213851256719
 30
0.0
 11
1.938559955750763
 21
2.094500210844115
 31
0.0
  0
LINE
  5
A4
330
2
100
AcDbEntity
  8
AM_VIS
100
AcDbLine
 10
1.944521244168029
 20
2.887215515543892
 30
0.0
 11
1.963558065954232
 21
2.910445829105323
 31
0.0
  0
LINE
  5
A5
330
2
100
AcDbEntity
  8
AM_VIS
100
AcDbLine
 10
1.944521244168026
 20
2.087212500269775
 30
0.0
 11
1.963558065954231
 21
2.063982186708343
 31
0.0
  0
LINE
  5
A6
330
2
100
AcDbEntity
  8
AM_VIS
100
AcDbLine
 10
1.982596625711597
 20
2.887214164556946
 30
0.0
 11
1.988559955750763
 21
2.879927804969549
 31
0.0
  0
LINE
  5
A7
330
2
100
AcDbEntity
  8
AM_VIS
100
AcDbLine
 10
1.963561452264905
 20
2.910445829105322
 30
0.0
 11
1.982598274051109
 21
2.887215515543892
 31
0.0
  0
LINE
  5
A8
330
2
100
AcDbEntity
  8
AM_VIS
100
AcDbLine
 10
1.963561452264908
 20
2.063982186708343
 30
0.0
 11
1.98259827405111
 21
2.087212500269775
 31
0.0
  0
LINE
  5
A9
330
2
100
AcDbEntity
  8
AM_VIS
100
AcDbLine
 10
1.982596625711599
 20
2.087213851256719
 30
0.0
 11
1.988559955750764
 21
2.094500210844115
 31
0.0
  0
LINE
  5
AA
330
2
100
AcDbEntity
  8
AM_VIS
100
AcDbLine
 10
1.99452124416803
 20
2.887215515543892
 30
0.0
 11
2.013558065954232
 21
2.910445829105322
 31
0.0
  0
LINE
  5
AB
330
2
100
AcDbEntity
  8
AM_VIS
100
AcDbLine
 10
1.99452124416803
 20
2.087212500269775
 30
0.0
 11
2.013558065954232
 21
2.063982186708344
 31
0.0
  0
LINE
  5
AC
330
2
100
AcDbEntity
  8
AM_VIS
100
AcDbLine
 10
2.032596625711597
 20
2.887214164556946
 30
0.0
 11
2.038559955750764
 21
2.879927804969549
 31
0.0
  0
LINE
  5
AD
330
2
100
AcDbEntity
  8
AM_VIS
100
AcDbLine
 10
2.013561452264907
 20
2.910445829105322
 30
0.0
 11
2.032598274051109
 21
2.887215515543892
 31
0.0
  0
LINE
  5
AE
330
2
100
AcDbEntity
  8
AM_VIS
100
AcDbLine
 10
2.013561452264907
 20
2.063982186708344
 30
0.0
 11
2.032598274051109
 21
2.087212500269775
 31
0.0
  0
LINE
  5
AF
330
2
100
AcDbEntity
  8
AM_VIS
100
AcDbLine
 10
2.032596625711597
 20
2.087213851256719
 30
0.0
 11
2.038559955750764
 21
2.094500210844115
 31
0.0
  0
LINE
  5
B0
330
2
100
AcDbEntity
  8
AM_VIS
100
AcDbLine
 10
2.044521244168028
 20
2.887215515543892
 30
0.0
 11
2.06355806595423
 21
2.910445829105322
 31
0.0
  0
LINE
  5
B1
330
2
100
AcDbEntity
  8
AM_VIS
100
AcDbLine
 10
2.044521244168028
 20
2.087212500269775
 30
0.0
 11
2.063558065954229
 21
2.063982186708344
 31
0.0
  0
LINE
  5
B2
330
2
100
AcDbEntity
  8
AM_VIS
100
AcDbLine
 10
2.082596625711595
 20
2.887214164556946
 30
0.0
 11
2.088559955750763
 21
2.879927804969549
 31
0.0
  0
LINE
  5
B3
330
2
100
AcDbEntity
  8
AM_VIS
100
AcDbLine
 10
2.063561452264907
 20
2.910445829105322
 30
0.0
 11
2.082598274051109
 21
2.887215515543892
 31
0.0
  0
LINE
  5
B4
330
2
100
AcDbEntity
  8
AM_VIS
100
AcDbLine
 10
2.063561452264905
 20
2.063982186708344
 30
0.0
 11
2.082598274051107
 21
2.087212500269775
 31
0.0
  0
LINE
  5
B5
330
2
100
AcDbEntity
  8
AM_VIS
100
AcDbLine
 10
2.082596625711596
 20
2.087213851256719
 30
0.0
 11
2.088559955750763
 21
2.094500210844116
 31
0.0
  0
LINE
  5
B6
330
2
100
AcDbEntity
  8
AM_VIS
100
AcDbLine
 10
2.09452124416803
 20
2.887215515543892
 30
0.0
 11
2.113558065954232
 21
2.910445829105322
 31
0.0
  0
LINE
  5
B7
330
2
100
AcDbEntity
  8
AM_VIS
100
AcDbLine
 10
2.094521244168029
 20
2.087212500269775
 30
0.0
 11
2.113558065954229
 21
2.063982186708344
 31
0.0
  0
LINE
  5
B8
330
2
100
AcDbEntity
  8
AM_VIS
100
AcDbLine
 10
2.182596625711596
 20
2.887214164556946
 30
0.0
 11
2.188559955750763
 21
2.879927804969549
 31
0.0
  0
LINE
  5
B9
330
2
100
AcDbEntity
  8
AM_VIS
100
AcDbLine
 10
2.163561452264906
 20
2.910445829105322
 30
0.0
 11
2.182598274051106
 21
2.887215515543892
 31
0.0
  0
LINE
  5
BA
330
2
100
AcDbEntity
  8
AM_VIS
100
AcDbLine
 10
2.163561452264906
 20
2.063982186708343
 30
0.0
 11
2.182598274051108
 21
2.087212500269775
 31
0.0
  0
LINE
  5
BB
330
2
100
AcDbEntity
  8
AM_VIS
100
AcDbLine
 10
2.182596625711596
 20
2.087213851256719
 30
0.0
 11
2.188559955750763
 21
2.094500210844115
 31
0.0
  0
LINE
  5
BC
330
2
100
AcDbEntity
  8
AM_VIS
100
AcDbLine
 10
2.144521244168029
 20
2.887215515543892
 30
0.0
 11
2.163558065954231
 21
2.910445829105322
 31
0.0
  0
LINE
  5
BD
330
2
100
AcDbEntity
  8
AM_VIS
100
AcDbLine
 10
2.144521244168029
 20
2.087212500269775
 30
0.0
 11
2.163558065954231
 21
2.063982186708344
 31
0.0
  0
LINE
  5
BE
330
2
100
AcDbEntity
  8
AM_VIS
100
AcDbLine
 10
1.681767237554619
 20
2.063983574218517
 30
0.0
 11
1.68855975910957
 21
2.063983574218517
 31
0.0
  0
LINE
  5
BF
330
2
100
AcDbEntity
  8
AM_VIS
100
AcDbLine
 10
1.68855975910957
 20
2.910444441595148
 30
0.0
 11
1.681767237554619
 21
2.910444441595148
 31
0.0
  0
LINE
  5
C0
330
2
100
AcDbEntity
  8
AM_VIS
100
AcDbLine
 10
2.42476723755462
 20
2.099399619313526
 30
0.0
 11
2.724767237554619
 21
2.099399619313526
 31
0.0
  0
LINE
  5
C1
330
2
100
AcDbEntity
  8
AM_VIS
100
AcDbLine
 10
2.724767237554619
 20
2.829294042401686
 30
0.0
 11
2.724767237554619
 21
2.809375458114644
 31
0.0
  0
LINE
  5
C2
330
2
100
AcDbEntity
  8
AM_VIS
100
AcDbLine
 10
2.724767237554619
 20
2.222048964961871
 30
0.0
 11
2.724767237554619
 21
2.207906829338143
 31
0.0
  0
LINE
  5
C3
330
2
100
AcDbEntity
  8
AM_VIS
100
AcDbLine
 10
2.724767237554619
 20
2.87502839650014
 30
0.0
 11
2.42476723755462
 21
2.87502839650014
 31
0.0
  0
LINE
  5
C4
330
2
100
AcDbEntity
  8
AM_VIS
100
AcDbLine
 10
2.724767237554619
 20
2.207906829338143
 30
0.0
 11
2.49176723755462
 21
2.207906829338143
 31
0.0
  0
LINE
  5
C5
330
2
100
AcDbEntity
  8
AM_VIS
100
AcDbLine
 10
2.49176723755462
 20
2.145133973411982
 30
0.0
 11
2.38376723755462
 21
2.145133973411982
 31
0.0
  0
LINE
  5
C6
330
2
100
AcDbEntity
  8
AM_VIS
100
AcDbLine
 10
2.38376723755462
 20
2.207906829338143
 30
0.0
 11
2.31176723755462
 21
2.207906829338143
 31
0.0
  0
LINE
  5
C7
330
2
100
AcDbEntity
  8
AM_VIS
100
AcDbLine
 10
2.31176723755462
 20
2.299214007906825
 30
0.0
 11
2.724767237554619
 21
2.299214007906825
 31
0.0
  0
LINE
  5
C8
330
2
100
AcDbEntity
  8
AM_VIS
100
AcDbLine
 10
2.724767237554619
 20
2.749214007906831
 30
0.0
 11
2.49176723755462
 21
2.749214007906831
 31
0.0
  0
LINE
  5
C9
330
2
100
AcDbEntity
  8
AM_VIS
100
AcDbLine
 10
2.49176723755462
 20
2.675214007906828
 30
0.0
 11
2.38376723755462
 21
2.675214007906828
 31
0.0
  0
LINE
  5
CA
330
2
100
AcDbEntity
  8
AM_VIS
100
AcDbLine
 10
2.38376723755462
 20
2.749214007906831
 30
0.0
 11
2.31176723755462
 21
2.749214007906831
 31
0.0
  0
LINE
  5
CB
330
2
100
AcDbEntity
  8
AM_VIS
100
AcDbLine
 10
2.31176723755462
 20
2.829294042401686
 30
0.0
 11
2.724767237554619
 21
2.829294042401686
 31
0.0
  0
LINE
  5
CC
330
2
100
AcDbEntity
  8
AM_VIS
100
AcDbLine
 10
2.491767237554618
 20
2.162454481487671
 30
0.0
 11
2.38376723755462
 21
2.162454481487671
 31
0.0
  0
LINE
  5
CD
330
2
100
AcDbEntity
  8
AM_VIS
100
AcDbLine
 10
2.38376723755462
 20
2.207906829338143
 30
0.0
 11
2.38376723755462
 21
2.222048964961873
 31
0.0
  0
LINE
  5
CE
330
2
100
AcDbEntity
  8
AM_VIS
100
AcDbLine
 10
2.49176723755462
 20
2.222048964961873
 30
0.0
 11
2.49176723755462
 21
2.207906829338142
 31
0.0
  0
LINE
  5
CF
330
2
100
AcDbEntity
  8
AM_VIS
100
AcDbLine
 10
2.724767237554619
 20
2.222048964961871
 30
0.0
 11
2.49176723755462
 21
2.222048964961871
 31
0.0
  0
LINE
  5
D0
330
2
100
AcDbEntity
  8
AM_VIS
100
AcDbLine
 10
2.38376723755462
 20
2.222048964961871
 30
0.0
 11
2.31176723755462
 21
2.222048964961871
 31
0.0
  0
LINE
  5
D1
330
2
100
AcDbEntity
  8
AM_VIS
100
AcDbLine
 10
2.724767237554619
 20
2.809375458114644
 30
0.0
 11
2.31176723755462
 21
2.809375458114644
 31
0.0
  0
LINE
  5
D2
330
2
100
AcDbEntity
  8
AM_VIS
100
AcDbLine
 10
1.68855975910957
 20
2.887214007906834
 30
0.0
 11
1.694523083912185
 21
2.887214007906834
 31
0.0
  0
LINE
  5
D3
330
2
100
AcDbEntity
  8
AM_VIS
100
AcDbLine
 10
1.732596434306955
 20
2.887214007906834
 30
0.0
 11
1.744523083912184
 21
2.887214007906834
 31
0.0
  0
LINE
  5
D4
330
2
100
AcDbEntity
  8
AM_VIS
100
AcDbLine
 10
1.782596434306955
 20
2.887214007906834
 30
0.0
 11
1.794523083912185
 21
2.887214007906834
 31
0.0
  0
LINE
  5
D5
330
2
100
AcDbEntity
  8
AM_VIS
100
AcDbLine
 10
1.832596434306955
 20
2.887214007906834
 30
0.0
 11
1.844523083912185
 21
2.887214007906834
 31
0.0
  0
LINE
  5
D6
330
2
100
AcDbEntity
  8
AM_VIS
100
AcDbLine
 10
1.882596434306955
 20
2.887214007906834
 30
0.0
 11
1.894523083912184
 21
2.887214007906834
 31
0.0
  0
LINE
  5
D7
330
2
100
AcDbEntity
  8
AM_VIS
100
AcDbLine
 10
1.932596434306955
 20
2.887214007906834
 30
0.0
 11
1.944523083912183
 21
2.887214007906834
 31
0.0
  0
LINE
  5
D8
330
2
100
AcDbEntity
  8
AM_VIS
100
AcDbLine
 10
1.982596434306954
 20
2.887214007906834
 30
0.0
 11
1.994523083912183
 21
2.887214007906834
 31
0.0
  0
LINE
  5
D9
330
2
100
AcDbEntity
  8
AM_VIS
100
AcDbLine
 10
2.032596434306954
 20
2.887214007906834
 30
0.0
 11
2.044523083912183
 21
2.887214007906834
 31
0.0
  0
LINE
  5
DA
330
2
100
AcDbEntity
  8
AM_VIS
100
AcDbLine
 10
2.082596434306954
 20
2.887214007906834
 30
0.0
 11
2.094523083912184
 21
2.887214007906834
 31
0.0
  0
LINE
  5
DB
330
2
100
AcDbEntity
  8
AM_VIS
100
AcDbLine
 10
2.132596434306954
 20
2.887214007906834
 30
0.0
 11
2.144523083912182
 21
2.887214007906834
 31
0.0
  0
LINE
  5
DC
330
2
100
AcDbEntity
  8
AM_VIS
100
AcDbLine
 10
2.182596434306954
 20
2.887214007906834
 30
0.0
 11
2.30976723755462
 21
2.887214007906834
 31
0.0
  0
LINE
  5
DD
330
2
100
AcDbEntity
  8
AM_VIS
100
AcDbLine
 10
1.68855975910957
 20
2.087214007906832
 30
0.0
 11
1.694523083912183
 21
2.087214007906832
 31
0.0
  0
LINE
  5
DE
330
2
100
AcDbEntity
  8
AM_VIS
100
AcDbLine
 10
1.732596434306955
 20
2.087214007906832
 30
0.0
 11
1.744523083912183
 21
2.087214007906832
 31
0.0
  0
LINE
  5
DF
330
2
100
AcDbEntity
  8
AM_VIS
100
AcDbLine
 10
1.782596434306956
 20
2.087214007906832
 30
0.0
 11
1.794523083912183
 21
2.087214007906832
 31
0.0
  0
LINE
  5
E0
330
2
100
AcDbEntity
  8
AM_VIS
100
AcDbLine
 10
1.832596434306955
 20
2.087214007906832
 30
0.0
 11
1.844523083912184
 21
2.087214007906832
 31
0.0
  0
LINE
  5
E1
330
2
100
AcDbEntity
  8
AM_VIS
100
AcDbLine
 10
1.882596434306955
 20
2.087214007906832
 30
0.0
 11
1.894523083912184
 21
2.087214007906832
 31
0.0
  0
LINE
  5
E2
330
2
100
AcDbEntity
  8
AM_VIS
100
AcDbLine
 10
1.932596434306955
 20
2.087214007906832
 30
0.0
 11
1.944523083912183
 21
2.087214007906832
 31
0.0
  0
LINE
  5
E3
330
2
100
AcDbEntity
  8
AM_VIS
100
AcDbLine
 10
1.982596434306955
 20
2.087214007906832
 30
0.0
 11
1.994523083912183
 21
2.087214007906832
 31
0.0
  0
LINE
  5
E4
330
2
100
AcDbEntity
  8
AM_VIS
100
AcDbLine
 10
2.032596434306954
 20
2.087214007906832
 30
0.0
 11
2.044523083912183
 21
2.087214007906832
 31
0.0
  0
LINE
  5
E5
330
2
100
AcDbEntity
  8
AM_VIS
100
AcDbLine
 10
2.082596434306954
 20
2.087214007906832
 30
0.0
 11
2.094523083912184
 21
2.087214007906832
 31
0.0
  0
LINE
  5
E6
330
2
100
AcDbEntity
  8
AM_VIS
100
AcDbLine
 10
2.132596434306954
 20
2.087214007906832
 30
0.0
 11
2.144523083912182
 21
2.087214007906832
 31
0.0
  0
LINE
  5
E7
330
2
100
AcDbEntity
  8
AM_VIS
100
AcDbLine
 10
2.182596434306954
 20
2.087214007906832
 30
0.0
 11
2.30976723755462
 21
2.087214007906832
 31
0.0
  0
LINE
  5
E8
330
2
100
AcDbEntity
  8
AM_VIS
100
AcDbLine
 10
1.218559618497939
 20
2.979714007906833
 30
0.0
 11
1.245051952070655
 21
3.049450400387744
 31
0.0
  0
LINE
  5
E9
330
2
100
AcDbEntity
  8
AM_VIS
100
AcDbLine
 10
1.218559618497939
 20
1.994714007906834
 30
0.0
 11
1.245051952070655
 21
1.92497761542592
 31
0.0
  0
LINE
  5
EA
330
2
100
AcDbEntity
  8
AM_VIS
100
AcDbLine
 10
2.42476723755462
 20
2.092214007906833
 30
0.0
 11
2.30976723755462
 21
2.092214007906833
 31
0.0
  0
LINE
  5
EB
330
2
100
AcDbEntity
  8
AM_VIS
100
AcDbLine
 10
2.42476723755462
 20
2.882214007906833
 30
0.0
 11
2.30976723755462
 21
2.882214007906833
 31
0.0
  0
LINE
  5
EC
330
2
100
AcDbEntity
  8
AM_VIS
100
AcDbLine
 10
1.68176723755462
 20
1.897214007906833
 30
0.0
 11
1.245051952070655
 21
1.897214007906833
 31
0.0
  0
LINE
  5
ED
330
2
100
AcDbEntity
  8
AM_VIS
100
AcDbLine
 10
1.68176723755462
 20
3.077214007906833
 30
0.0
 11
1.245051952070655
 21
3.077214007906833
 31
0.0
  0
LINE
  5
EE
330
2
100
AcDbEntity
  8
AM_VIS
100
AcDbLine
 10
2.30976723755462
 20
2.087214007906832
 30
0.0
 11
2.30976723755462
 21
2.887214007906833
 31
0.0
  0
LINE
  5
EF
330
2
100
AcDbEntity
  8
AM_VIS
100
AcDbLine
 10
2.188559759109567
 20
2.879927644033718
 30
0.0
 11
2.188559759109567
 21
2.094500371779948
 31
0.0
  0
LINE
  5
F0
330
2
100
AcDbEntity
  8
AM_VIS
100
AcDbLine
 10
1.68176723755462
 20
3.077214007906833
 30
0.0
 11
1.68176723755462
 21
1.897214007906833
 31
0.0
  0
LINE
  5
F1
330
2
100
AcDbEntity
  8
AM_VIS
100
AcDbLine
 10
1.71355975910957
 20
2.063983574218517
 30
0.0
 11
1.71355975910957
 21
2.910444441595148
 31
0.0
  0
LINE
  5
F2
330
2
100
AcDbEntity
  8
AM_VIS
100
AcDbLine
 10
1.73855975910957
 20
2.879927644033718
 30
0.0
 11
1.73855975910957
 21
2.094500371779948
 31
0.0
  0
LINE
  5
F3
330
2
100
AcDbEntity
  8
AM_VIS
100
AcDbLine
 10
1.76355975910957
 20
2.063983574218517
 30
0.0
 11
1.76355975910957
 21
2.910444441595148
 31
0.0
  0
LINE
  5
F4
330
2
100
AcDbEntity
  8
AM_VIS
100
AcDbLine
 10
1.78855975910957
 20
2.879927644033718
 30
0.0
 11
1.78855975910957
 21
2.094500371779948
 31
0.0
  0
LINE
  5
F5
330
2
100
AcDbEntity
  8
AM_VIS
100
AcDbLine
 10
1.813559759109569
 20
2.063983574218517
 30
0.0
 11
1.813559759109569
 21
2.910444441595148
 31
0.0
  0
LINE
  5
F6
330
2
100
AcDbEntity
  8
AM_VIS
100
AcDbLine
 10
1.838559759109569
 20
2.879927644033718
 30
0.0
 11
1.838559759109569
 21
2.094500371779948
 31
0.0
  0
LINE
  5
F7
330
2
100
AcDbEntity
  8
AM_VIS
100
AcDbLine
 10
1.86355975910957
 20
2.063983574218517
 30
0.0
 11
1.86355975910957
 21
2.910444441595148
 31
0.0
  0
LINE
  5
F8
330
2
100
AcDbEntity
  8
AM_VIS
100
AcDbLine
 10
1.888559759109569
 20
2.879927644033718
 30
0.0
 11
1.888559759109569
 21
2.094500371779946
 31
0.0
  0
LINE
  5
F9
330
2
100
AcDbEntity
  8
AM_VIS
100
AcDbLine
 10
1.91355975910957
 20
2.063983574218517
 30
0.0
 11
1.91355975910957
 21
2.910444441595148
 31
0.0
  0
LINE
  5
FA
330
2
100
AcDbEntity
  8
AM_VIS
100
AcDbLine
 10
1.938559759109569
 20
2.879927644033718
 30
0.0
 11
1.938559759109569
 21
2.094500371779946
 31
0.0
  0
LINE
  5
FB
330
2
100
AcDbEntity
  8
AM_VIS
100
AcDbLine
 10
1.963559759109569
 20
2.063983574218517
 30
0.0
 11
1.963559759109569
 21
2.910444441595148
 31
0.0
  0
LINE
  5
FC
330
2
100
AcDbEntity
  8
AM_VIS
100
AcDbLine
 10
1.98855975910957
 20
2.879927644033718
 30
0.0
 11
1.98855975910957
 21
2.094500371779948
 31
0.0
  0
LINE
  5
FD
330
2
100
AcDbEntity
  8
AM_VIS
100
AcDbLine
 10
2.013559759109569
 20
2.063983574218517
 30
0.0
 11
2.013559759109569
 21
2.910444441595148
 31
0.0
  0
LINE
  5
FE
330
2
100
AcDbEntity
  8
AM_VIS
100
AcDbLine
 10
2.03855975910957
 20
2.879927644033718
 30
0.0
 11
2.03855975910957
 21
2.094500371779948
 31
0.0
  0
LINE
  5
FF
330
2
100
AcDbEntity
  8
AM_VIS
100
AcDbLine
 10
2.063559759109569
 20
2.063983574218517
 30
0.0
 11
2.063559759109569
 21
2.910444441595148
 31
0.0
  0
LINE
  5
100
330
2
100
AcDbEntity
  8
AM_VIS
100
AcDbLine
 10
2.088559759109569
 20
2.879927644033718
 30
0.0
 11
2.088559759109569
 21
2.094500371779948
 31
0.0
  0
LINE
  5
101
330
2
100
AcDbEntity
  8
AM_VIS
100
AcDbLine
 10
2.113559759109569
 20
2.063983574218517
 30
0.0
 11
2.113559759109569
 21
2.910444441595148
 31
0.0
  0
LINE
  5
102
330
2
100
AcDbEntity
  8
AM_VIS
100
AcDbLine
 10
2.138559759109567
 20
2.879927644033718
 30
0.0
 11
2.138559759109567
 21
2.094500371779948
 31
0.0
  0
LINE
  5
103
330
2
100
AcDbEntity
  8
AM_VIS
100
AcDbLine
 10
2.163559759109569
 20
2.063983574218517
 30
0.0
 11
2.163559759109569
 21
2.910444441595148
 31
0.0
  0
LINE
  5
104
330
2
100
AcDbEntity
  8
AM_VIS
100
AcDbLine
 10
1.68855975910957
 20
2.910444441595148
 30
0.0
 11
1.68855975910957
 21
2.063983574218517
 31
0.0
  0
LINE
  5
105
330
2
100
AcDbEntity
  8
AM_VIS
100
AcDbLine
 10
2.42476723755462
 20
2.099399619313526
 30
0.0
 11
2.42476723755462
 21
2.092214007906834
 31
0.0
  0
LINE
  5
106
330
2
100
AcDbEntity
  8
AM_VIS
100
AcDbLine
 10
2.724767237554619
 20
2.829294042401686
 30
0.0
 11
2.724767237554619
 21
2.87502839650014
 31
0.0
  0
LINE
  5
107
330
2
100
AcDbEntity
  8
AM_VIS
100
AcDbLine
 10
2.724767237554619
 20
2.749214007906831
 30
0.0
 11
2.724767237554619
 21
2.809375458114643
 31
0.0
  0
LINE
  5
108
330
2
100
AcDbEntity
  8
AM_VIS
100
AcDbLine
 10
2.724767237554619
 20
2.299214007906825
 30
0.0
 11
2.724767237554619
 21
2.749214007906831
 31
0.0
  0
LINE
  5
109
330
2
100
AcDbEntity
  8
AM_VIS
100
AcDbLine
 10
2.724767237554619
 20
2.222048964961871
 30
0.0
 11
2.724767237554619
 21
2.299214007906825
 31
0.0
  0
LINE
  5
10A
330
2
100
AcDbEntity
  8
AM_VIS
100
AcDbLine
 10
2.724767237554619
 20
2.099399619313526
 30
0.0
 11
2.724767237554619
 21
2.207906829338143
 31
0.0
  0
LINE
  5
10B
330
2
100
AcDbEntity
  8
AM_VIS
100
AcDbLine
 10
1.245051952070655
 20
1.897214007906833
 30
0.0
 11
1.245051952070655
 21
3.077214007906833
 31
0.0
  0
LINE
  5
10C
330
2
100
AcDbEntity
  8
AM_VIS
100
AcDbLine
 10
2.42476723755462
 20
2.882214007906833
 30
0.0
 11
2.42476723755462
 21
2.87502839650014
 31
0.0
  0
LINE
  5
10D
330
2
100
AcDbEntity
  8
AM_VIS
100
AcDbLine
 10
2.491767237554618
 20
2.145133973411982
 30
0.0
 11
2.491767237554618
 21
2.207906829338151
 31
0.0
  0
LINE
  5
10E
330
2
100
AcDbEntity
  8
AM_VIS
100
AcDbLine
 10
2.38376723755462
 20
2.207906829338151
 30
0.0
 11
2.38376723755462
 21
2.145133973411982
 31
0.0
  0
LINE
  5
10F
330
2
100
AcDbEntity
  8
AM_VIS
100
AcDbLine
 10
2.31176723755462
 20
2.299214007906825
 30
0.0
 11
2.31176723755462
 21
2.207906829338143
 31
0.0
  0
LINE
  5
110
330
2
100
AcDbEntity
  8
AM_VIS
100
AcDbLine
 10
2.49176723755462
 20
2.67521400790683
 30
0.0
 11
2.49176723755462
 21
2.749214007906831
 31
0.0
  0
LINE
  5
111
330
2
100
AcDbEntity
  8
AM_VIS
100
AcDbLine
 10
2.38376723755462
 20
2.749214007906831
 30
0.0
 11
2.38376723755462
 21
2.67521400790683
 31
0.0
  0
LINE
  5
112
330
2
100
AcDbEntity
  8
AM_VIS
100
AcDbLine
 10
2.31176723755462
 20
2.829294042401686
 30
0.0
 11
2.31176723755462
 21
2.749214007906831
 31
0.0
  0
LINE
  5
113
330
2
100
AcDbEntity
  8
AM_VIS
100
AcDbLine
 10
5.741817268804624
 20
2.966661546077104
 30
0.0
 11
5.741817268804624
 21
2.966543181169263
 31
0.0
  0
LINE
  5
114
330
2
100
AcDbEntity
  8
AM_VIS
100
AcDbLine
 10
5.931767268803692
 20
2.954859922455665
 30
0.0
 11
5.931767268803692
 21
2.883590350489535
 31
0.0
  0
LINE
  5
115
330
2
100
AcDbEntity
  8
AM_VIS
100
AcDbLine
 10
5.741817268804624
 20
2.578256233092838
 30
0.0
 11
5.741817268804624
 21
2.578171107705911
 31
0.0
  0
LINE
  5
116
330
2
100
AcDbEntity
  8
AM_VIS
100
AcDbLine
 10
5.931767268806193
 20
2.624554420197704
 30
0.0
 11
5.931767268806193
 21
2.578171107705911
 31
0.0
  0
LINE
  5
117
330
2
100
AcDbEntity
  8
AM_VIS
100
AcDbLine
 10
5.93176726880462
 20
2.578171107705911
 30
0.0
 11
5.741817268804621
 21
2.578171107705911
 31
0.0
  0
LINE
  5
118
330
2
100
AcDbEntity
  8
AM_VIS
100
AcDbLine
 10
5.741817268804624
 20
2.396256786531798
 30
0.0
 11
5.741817268804624
 21
2.396171661165184
 31
0.0
  0
LINE
  5
119
330
2
100
AcDbEntity
  8
AM_VIS
100
AcDbLine
 10
5.931767268803692
 20
2.396256786531798
 30
0.0
 11
5.931767268803692
 21
2.349873485513703
 31
0.0
  0
LINE
  5
11A
330
2
100
AcDbEntity
  8
AM_VIS
100
AcDbLine
 10
5.741817268804624
 20
2.007884834644439
 30
0.0
 11
5.741817268804624
 21
2.007766469736598
 31
0.0
  0
LINE
  5
11B
330
2
100
AcDbEntity
  8
AM_VIS
100
AcDbLine
 10
5.931767268806193
 20
2.090837665324173
 30
0.0
 11
5.931767268806193
 21
2.019568093358061
 31
0.0
  0
LINE
  5
11C
330
2
100
AcDbEntity
  8
AM_VIS
100
AcDbLine
 10
5.74181726880462
 20
2.007766469740151
 30
0.0
 11
5.74181726880462
 21
1.956566148081904
 31
0.0
  0
LINE
  5
11D
330
2
100
AcDbEntity
  8
AM_VIS
100
AcDbLine
 10
5.93176726880462
 20
1.956566148081904
 30
0.0
 11
5.93176726880462
 21
2.01956809336837
 31
0.0
  0
LINE
  5
11E
330
2
100
AcDbEntity
  8
AM_VIS
100
AcDbLine
 10
5.93176726880462
 20
1.918442144945752
 30
0.0
 11
5.741817268804621
 21
1.918442144945752
 31
0.0
  0
LINE
  5
11F
330
2
100
AcDbEntity
  8
AM_VIS
100
AcDbLine
 10
5.93176726880462
 20
2.396256786531798
 30
0.0
 11
5.741817268804621
 21
2.396256786531798
 31
0.0
  0
LINE
  5
120
330
2
100
AcDbEntity
  8
AM_VIS
100
AcDbLine
 10
5.74181726880462
 20
3.017861867731789
 30
0.0
 11
5.74181726880462
 21
2.966661546073551
 31
0.0
  0
LINE
  5
121
330
2
100
AcDbEntity
  8
AM_VIS
100
AcDbLine
 10
5.93176726880462
 20
2.954859922445355
 30
0.0
 11
5.93176726880462
 21
3.017861867731789
 31
0.0
  0
LINE
  5
122
330
2
100
AcDbEntity
  8
AM_VIS
100
AcDbLine
 10
5.93176726880462
 20
3.055985870867951
 30
0.0
 11
5.741817268804621
 21
3.055985870867951
 31
0.0
  0
LINE
  5
123
330
2
100
AcDbEntity
  8
AM_VIS
100
AcDbLine
 10
5.74181726880462
 20
1.945924658945765
 30
0.0
 11
5.741767245054685
 21
1.94590888855633
 31
0.0
  0
LINE
  5
124
330
2
100
AcDbEntity
  8
AM_VIS
100
AcDbLine
 10
5.74181726880462
 20
3.028503356867915
 30
0.0
 11
5.741767245054685
 21
3.028519127257351
 31
0.0
  0
LINE
  5
125
330
2
100
AcDbEntity
  8
AM_VIS
100
AcDbLine
 10
5.68176723755462
 20
3.109104632906845
 30
0.0
 11
5.741767245054685
 21
3.109104632906845
 31
0.0
  0
LINE
  5
126
330
2
100
AcDbEntity
  8
AM_VIS
100
AcDbLine
 10
5.68176723755462
 20
1.865323382906836
 30
0.0
 11
5.741767245054685
 21
1.865323382906836
 31
0.0
  0
LINE
  5
127
330
2
100
AcDbEntity
  8
AM_VIS
100
AcDbLine
 10
5.93176726880462
 20
1.878758840589544
 30
0.0
 11
5.741817268804621
 21
1.878758840589544
 31
0.0
  0
LINE
  5
128
330
2
100
AcDbEntity
  8
AM_VIS
100
AcDbLine
 10
5.93176726880462
 20
3.095669175224136
 30
0.0
 11
5.741817268804621
 21
3.095669175224136
 31
0.0
  0
LINE
  5
129
330
2
100
AcDbEntity
  8
AM_VIS
100
AcDbLine
 10
5.93176726880462
 20
2.090837665784326
 30
0.0
 11
5.93176726880462
 21
2.349873484736554
 31
0.0
  0
LINE
  5
12A
330
2
100
AcDbEntity
  8
AM_VIS
100
AcDbLine
 10
5.93176726880462
 20
2.624554420974754
 30
0.0
 11
5.93176726880462
 21
2.883590350029379
 31
0.0
  0
LINE
  5
12B
330
2
100
AcDbEntity
  8
AM_VIS
100
AcDbLine
 10
5.741767245054685
 20
1.865323382906836
 30
0.0
 11
5.741767245054685
 21
3.109104632906845
 31
0.0
  0
LINE
  5
12C
330
2
100
AcDbEntity
  8
AM_VIS
100
AcDbLine
 10
5.68176723755462
 20
1.865323382906836
 30
0.0
 11
5.68176723755462
 21
3.109104632906845
 31
0.0
  0
LINE
  5
12D
330
2
100
AcDbEntity
  8
AM_VIS
100
AcDbLine
 10
5.741817268804621
 20
1.878758840589544
 30
0.0
 11
5.741817268804621
 21
1.87944127073815
 31
0.0
  0
LINE
  5
12E
330
2
100
AcDbEntity
  8
AM_VIS
100
AcDbLine
 10
5.741817268804621
 20
1.879441270738153
 30
0.0
 11
5.741817268804621
 21
1.918442144945754
 31
0.0
  0
LINE
  5
12F
330
2
100
AcDbEntity
  8
AM_VIS
100
AcDbLine
 10
5.74181726880462
 20
1.918442144945752
 30
0.0
 11
5.74181726880462
 21
1.956566148081909
 31
0.0
  0
LINE
  5
130
330
2
100
AcDbEntity
  8
AM_VIS
100
AcDbLine
 10
5.93176726880462
 20
1.956566148081909
 30
0.0
 11
5.93176726880462
 21
1.918442144945752
 31
0.0
  0
LINE
  5
131
330
2
100
AcDbEntity
  8
AM_VIS
100
AcDbLine
 10
5.93176726880462
 20
1.918442144945753
 30
0.0
 11
5.93176726880462
 21
1.879441270738153
 31
0.0
  0
LINE
  5
132
330
2
100
AcDbEntity
  8
AM_VIS
100
AcDbLine
 10
5.93176726880462
 20
1.87944127073815
 30
0.0
 11
5.93176726880462
 21
1.878758840589544
 31
0.0
  0
LINE
  5
133
330
2
100
AcDbEntity
  8
AM_VIS
100
AcDbLine
 10
5.74181726880462
 20
2.396256786531798
 30
0.0
 11
5.74181726880462
 21
2.424238087211319
 31
0.0
  0
LINE
  5
134
330
2
100
AcDbEntity
  8
AM_VIS
100
AcDbLine
 10
5.741817268804621
 20
2.424238087211319
 30
0.0
 11
5.741817268804621
 21
2.550189807026398
 31
0.0
  0
LINE
  5
135
330
2
100
AcDbEntity
  8
AM_VIS
100
AcDbLine
 10
5.74181726880462
 20
2.550189807026391
 30
0.0
 11
5.74181726880462
 21
2.578171107705911
 31
0.0
  0
LINE
  5
136
330
2
100
AcDbEntity
  8
AM_VIS
100
AcDbLine
 10
5.93176726880462
 20
2.550189807026399
 30
0.0
 11
5.93176726880462
 21
2.424238087211319
 31
0.0
  0
LINE
  5
137
330
2
100
AcDbEntity
  8
AM_VIS
100
AcDbLine
 10
5.93176726880462
 20
2.424238087211319
 30
0.0
 11
5.93176726880462
 21
2.396256786531798
 31
0.0
  0
LINE
  5
138
330
2
100
AcDbEntity
  8
AM_VIS
100
AcDbLine
 10
5.93176726880462
 20
2.578171107705911
 30
0.0
 11
5.93176726880462
 21
2.550189807026391
 31
0.0
  0
LINE
  5
139
330
2
100
AcDbEntity
  8
AM_VIS
100
AcDbLine
 10
5.74181726880462
 20
3.017861867731791
 30
0.0
 11
5.74181726880462
 21
3.055985870867951
 31
0.0
  0
LINE
  5
13A
330
2
100
AcDbEntity
  8
AM_VIS
100
AcDbLine
 10
5.741817268804621
 20
3.055985870867959
 30
0.0
 11
5.741817268804621
 21
3.094986745075539
 31
0.0
  0
LINE
  5
13B
330
2
100
AcDbEntity
  8
AM_VIS
100
AcDbLine
 10
5.741817268804621
 20
3.094986745075531
 30
0.0
 11
5.741817268804621
 21
3.095669175224136
 31
0.0
  0
LINE
  5
13C
330
2
100
AcDbEntity
  8
AM_VIS
100
AcDbLine
 10
5.93176726880462
 20
3.095669175224136
 30
0.0
 11
5.93176726880462
 21
3.094986745075531
 31
0.0
  0
LINE
  5
13D
330
2
100
AcDbEntity
  8
AM_VIS
100
AcDbLine
 10
5.93176726880462
 20
3.094986745075539
 30
0.0
 11
5.93176726880462
 21
3.055985870867959
 31
0.0
  0
LINE
  5
13E
330
2
100
AcDbEntity
  8
AM_VIS
100
AcDbLine
 10
5.93176726880462
 20
3.055985870867951
 30
0.0
 11
5.93176726880462
 21
3.017861867731791
 31
0.0
  0
LINE
  5
13F
330
2
100
AcDbEntity
  8
AM_VIS
100
AcDbLine
 10
3.431767237554613
 20
3.080964007906841
 30
0.0
 11
3.494267237554613
 21
3.080964007906841
 31
0.0
  0
LINE
  5
140
330
2
100
AcDbEntity
  8
AM_VIS
100
AcDbLine
 10
3.431767237554613
 20
1.89346400790684
 30
0.0
 11
3.494267237554613
 21
1.89346400790684
 31
0.0
  0
LINE
  5
141
330
2
100
AcDbEntity
  8
AM_VIS
100
AcDbLine
 10
3.494267237554613
 20
3.080964007906841
 30
0.0
 11
3.494267237554613
 21
1.89346400790684
 31
0.0
  0
LINE
  5
142
330
2
100
AcDbEntity
  8
AM_VIS
100
AcDbLine
 10
3.431767237554613
 20
3.080964007906841
 30
0.0
 11
3.431767237554613
 21
1.89346400790684
 31
0.0
  0
LINE
  5
143
330
2
100
AcDbEntity
  8
AM_VIS
100
AcDbLine
 10
6.87176723755462
 20
2.393346324610126
 30
0.0
 11
6.87176723755462
 21
2.36458515956651
 31
0.0
  0
LINE
  5
144
330
2
100
AcDbEntity
  8
AM_VIS
100
AcDbLine
 10
6.951767237554618
 20
2.36458515956651
 30
0.0
 11
6.951767237554618
 21
2.393346324610126
 31
0.0
  0
LINE
  5
145
330
2
100
AcDbEntity
  8
AM_VIS
100
AcDbLine
 10
6.87176723755462
 20
2.841906819534403
 30
0.0
 11
6.87176723755462
 21
2.429007620451614
 31
0.0
  0
LINE
  5
146
330
2
100
AcDbEntity
  8
AM_VIS
100
AcDbLine
 10
6.87176723755462
 20
2.364346636419034
 30
0.0
 11
6.87176723755462
 21
2.361382779356804
 31
0.0
  0
LINE
  5
147
330
2
100
AcDbEntity
  8
AM_VIS
100
AcDbLine
 10
6.951767237554618
 20
2.347658326112973
 30
0.0
 11
6.951767237554618
 21
2.364346636419034
 31
0.0
  0
LINE
  5
148
330
2
100
AcDbEntity
  8
AM_VIS
100
AcDbLine
 10
6.951767237554618
 20
2.429007620451614
 30
0.0
 11
6.951767237554618
 21
2.841906819534403
 31
0.0
  0
LINE
  5
149
330
2
100
AcDbEntity
  8
AM_VIS
100
AcDbLine
 10
6.87176723755462
 20
2.870007000545438
 30
0.0
 11
6.951767237554618
 21
2.870007000545438
 31
0.0
  0
LINE
  5
14A
330
2
100
AcDbEntity
  8
AM_VIS
100
AcDbLine
 10
6.87176723755462
 20
2.364346636419034
 30
0.0
 11
6.951767237554618
 21
2.364346636419034
 31
0.0
  0
LINE
  5
14B
330
2
100
AcDbEntity
  8
AM_VIS
100
AcDbLine
 10
6.951767237554618
 20
2.429007620451614
 30
0.0
 11
6.951767237554618
 21
2.393346324610126
 31
0.0
  0
LINE
  5
14C
330
2
100
AcDbEntity
  8
AM_VIS
100
AcDbLine
 10
6.87176723755462
 20
2.393346324610126
 30
0.0
 11
6.87176723755462
 21
2.429007620451614
 31
0.0
  0
LINE
  5
14D
330
2
100
AcDbEntity
  8
AM_VIS
100
AcDbLine
 10
6.87176723755462
 20
2.841906819534403
 30
0.0
 11
6.87176723755462
 21
2.870007000545438
 31
0.0
  0
LINE
  5
14E
330
2
100
AcDbEntity
  8
AM_VIS
100
AcDbLine
 10
6.87176723755462
 20
2.364346636419034
 30
0.0
 11
6.87176723755462
 21
2.36458515956651
 31
0.0
  0
LINE
  5
14F
330
2
100
AcDbEntity
  8
AM_VIS
100
AcDbLine
 10
6.951767237554618
 20
2.870007000545438
 30
0.0
 11
6.951767237554618
 21
2.841906819534403
 31
0.0
  0
LINE
  5
150
330
2
100
AcDbEntity
  8
AM_VIS
100
AcDbLine
 10
6.951767237554618
 20
2.36458515956651
 30
0.0
 11
6.951767237554618
 21
2.364346636419034
 31
0.0
  0
LINE
  5
151
330
2
100
AcDbEntity
  8
AM_VIS
100
AcDbLine
 10
6.951767237554618
 20
2.316067149604108
 30
0.0
 11
6.951767237554618
 21
2.347658326112973
 31
0.0
  0
LINE
  5
152
330
2
100
AcDbEntity
  8
AM_VIS
100
AcDbLine
 10
6.95676723755462
 20
2.198214007906829
 30
0.0
 11
6.87076723755462
 21
2.198214007906829
 31
0.0
  0
LINE
  5
153
330
2
100
AcDbEntity
  8
AM_VIS
100
AcDbLine
 10
6.870767237554616
 20
2.163214007906829
 30
0.0
 11
6.870767237554616
 21
2.198214007906829
 31
0.0
  0
LINE
  5
154
330
2
100
AcDbEntity
  8
AM_VIS
100
AcDbLine
 10
6.87076723755462
 20
2.163214007906829
 30
0.0
 11
6.95676723755462
 21
2.163214007906829
 31
0.0
  0
LINE
  5
155
330
2
100
AcDbEntity
  8
AM_VIS
100
AcDbLine
 10
6.956767237554617
 20
1.91121400790683
 30
0.0
 11
6.956767237554617
 21
1.87921400790683
 31
0.0
  0
LINE
  5
156
330
2
100
AcDbEntity
  8
AM_VIS
100
AcDbLine
 10
6.956767237554617
 20
1.91121400790683
 30
0.0
 11
6.956767237554617
 21
2.247214007906829
 31
0.0
  0
LINE
  5
157
330
2
100
AcDbEntity
  8
AM_VIS
100
AcDbLine
 10
6.956767237554617
 20
2.32121400790683
 30
0.0
 11
6.956767237554617
 21
2.247214007906829
 31
0.0
  0
LINE
  5
158
330
2
100
AcDbEntity
  8
AM_VIS
100
AcDbLine
 10
6.956767237554617
 20
2.32121400790683
 30
0.0
 11
6.956767237554617
 21
2.65721400790683
 31
0.0
  0
LINE
  5
159
330
2
100
AcDbEntity
  8
AM_VIS
100
AcDbLine
 10
6.956767237554617
 20
2.73121400790683
 30
0.0
 11
6.956767237554617
 21
2.65721400790683
 31
0.0
  0
LINE
  5
15A
330
2
100
AcDbEntity
  8
AM_VIS
100
AcDbLine
 10
6.956767237554617
 20
2.73121400790683
 30
0.0
 11
6.956767237554617
 21
3.06721400790683
 31
0.0
  0
LINE
  5
15B
330
2
100
AcDbEntity
  8
AM_VIS
100
AcDbLine
 10
6.956767237554617
 20
3.09921400790683
 30
0.0
 11
6.956767237554617
 21
3.06721400790683
 31
0.0
  0
LINE
  5
15C
330
2
100
AcDbEntity
  8
AM_VIS
100
AcDbLine
 10
6.870767237554616
 20
2.78021400790683
 30
0.0
 11
6.871767237554621
 21
2.78021400790683
 31
0.0
  0
LINE
  5
15D
330
2
100
AcDbEntity
  8
AM_VIS
100
AcDbLine
 10
6.951767237554618
 20
2.78021400790683
 30
0.0
 11
6.956767237554617
 21
2.78021400790683
 31
0.0
  0
LINE
  5
15E
330
2
100
AcDbEntity
  8
AM_VIS
100
AcDbLine
 10
6.870767237554616
 20
2.81521400790683
 30
0.0
 11
6.87176723755462
 21
2.81521400790683
 31
0.0
  0
LINE
  5
15F
330
2
100
AcDbEntity
  8
AM_VIS
100
AcDbLine
 10
6.951767237554618
 20
2.81521400790683
 30
0.0
 11
6.956767237554617
 21
2.81521400790683
 31
0.0
  0
LINE
  5
160
330
2
100
AcDbEntity
  8
AM_VIS
100
AcDbLine
 10
6.870767237554616
 20
2.78021400790683
 30
0.0
 11
6.870767237554616
 21
2.81521400790683
 31
0.0
  0
LINE
  5
161
330
2
100
AcDbEntity
  8
AM_VIS
100
AcDbLine
 10
7.027767237554616
 20
2.247214007906829
 30
0.0
 11
7.027767237554616
 21
1.91121400790683
 31
0.0
  0
LINE
  5
162
330
2
100
AcDbEntity
  8
AM_VIS
100
AcDbLine
 10
7.09176723755462
 20
2.247214007906829
 30
0.0
 11
7.09176723755462
 21
1.91121400790683
 31
0.0
  0
LINE
  5
163
330
2
100
AcDbEntity
  8
AM_VIS
100
AcDbLine
 10
7.176767237554619
 20
2.247214007906829
 30
0.0
 11
7.176767237554619
 21
1.91121400790683
 31
0.0
  0
LINE
  5
164
330
2
100
AcDbEntity
  8
AM_VIS
100
AcDbLine
 10
7.231767237554619
 20
2.247214007906829
 30
0.0
 11
7.231767237554619
 21
1.91121400790683
 31
0.0
  0
LINE
  5
165
330
2
100
AcDbEntity
  8
AM_VIS
100
AcDbLine
 10
7.23176723755462
 20
1.91121400790683
 30
0.0
 11
6.95676723755462
 21
1.91121400790683
 31
0.0
  0
LINE
  5
166
330
2
100
AcDbEntity
  8
AM_VIS
100
AcDbLine
 10
6.956767237554617
 20
2.247214007906829
 30
0.0
 11
7.231767237554619
 21
2.247214007906829
 31
0.0
  0
LINE
  5
167
330
2
100
AcDbEntity
  8
AM_VIS
100
AcDbLine
 10
7.231767237554619
 20
2.247214007906829
 30
0.0
 11
7.231767237554619
 21
2.32121400790683
 31
0.0
  0
LINE
  5
168
330
2
100
AcDbEntity
  8
AM_VIS
100
AcDbLine
 10
7.23176723755462
 20
2.32121400790683
 30
0.0
 11
6.95676723755462
 21
2.32121400790683
 31
0.0
  0
LINE
  5
169
330
2
100
AcDbEntity
  8
AM_VIS
100
AcDbLine
 10
7.231767237554619
 20
3.06721400790683
 30
0.0
 11
7.231767237554619
 21
3.09921400790683
 31
0.0
  0
LINE
  5
16A
330
2
100
AcDbEntity
  8
AM_VIS
100
AcDbLine
 10
7.231767237554619
 20
3.06721400790683
 30
0.0
 11
7.231767237554619
 21
2.73121400790683
 31
0.0
  0
LINE
  5
16B
330
2
100
AcDbEntity
  8
AM_VIS
100
AcDbLine
 10
7.231767237554619
 20
2.65721400790683
 30
0.0
 11
7.231767237554619
 21
2.73121400790683
 31
0.0
  0
LINE
  5
16C
330
2
100
AcDbEntity
  8
AM_VIS
100
AcDbLine
 10
7.231767237554619
 20
2.65721400790683
 30
0.0
 11
7.231767237554619
 21
2.32121400790683
 31
0.0
  0
LINE
  5
16D
330
2
100
AcDbEntity
  8
AM_VIS
100
AcDbLine
 10
7.231767237554619
 20
1.87921400790683
 30
0.0
 11
7.231767237554619
 21
1.91121400790683
 31
0.0
  0
LINE
  5
16E
330
2
100
AcDbEntity
  8
AM_VIS
100
AcDbLine
 10
7.027767237554616
 20
3.06721400790683
 30
0.0
 11
7.027767237554616
 21
2.73121400790683
 31
0.0
  0
LINE
  5
16F
330
2
100
AcDbEntity
  8
AM_VIS
100
AcDbLine
 10
7.09176723755462
 20
3.06721400790683
 30
0.0
 11
7.09176723755462
 21
2.73121400790683
 31
0.0
  0
LINE
  5
170
330
2
100
AcDbEntity
  8
AM_VIS
100
AcDbLine
 10
7.176767237554619
 20
3.06721400790683
 30
0.0
 11
7.176767237554619
 21
2.73121400790683
 31
0.0
  0
LINE
  5
171
330
2
100
AcDbEntity
  8
AM_VIS
100
AcDbLine
 10
7.23176723755462
 20
2.73121400790683
 30
0.0
 11
6.95676723755462
 21
2.73121400790683
 31
0.0
  0
LINE
  5
172
330
2
100
AcDbEntity
  8
AM_VIS
100
AcDbLine
 10
6.956767237554617
 20
3.06721400790683
 30
0.0
 11
7.231767237554619
 21
3.06721400790683
 31
0.0
  0
LINE
  5
173
330
2
100
AcDbEntity
  8
AM_VIS
100
AcDbLine
 10
6.956767237554617
 20
3.09921400790683
 30
0.0
 11
7.231767237554619
 21
3.09921400790683
 31
0.0
  0
LINE
  5
174
330
2
100
AcDbEntity
  8
AM_VIS
100
AcDbLine
 10
6.951767237554618
 20
2.780017588181099
 30
0.0
 11
6.956767237554617
 21
2.780017588181099
 31
0.0
  0
LINE
  5
175
330
2
100
AcDbEntity
  8
AM_VIS
100
AcDbLine
 10
6.871767237554619
 20
2.19841042763256
 30
0.0
 11
6.871767237554619
 21
2.361382779356804
 31
0.0
  0
LINE
  5
176
330
2
100
AcDbEntity
  8
AM_VIS
100
AcDbLine
 10
6.956767237554617
 20
1.87921400790683
 30
0.0
 11
7.231767237554619
 21
1.87921400790683
 31
0.0
  0
LINE
  5
177
330
2
100
AcDbEntity
  8
AM_VIS
100
AcDbLine
 10
6.956767237554617
 20
1.87921400790683
 30
0.0
 11
6.811767237554619
 21
1.87921400790683
 31
0.0
  0
LINE
  5
178
330
2
100
AcDbEntity
  8
AM_VIS
100
AcDbLine
 10
7.027767237554616
 20
2.65721400790683
 30
0.0
 11
7.027767237554616
 21
2.32121400790683
 31
0.0
  0
LINE
  5
179
330
2
100
AcDbEntity
  8
AM_VIS
100
AcDbLine
 10
7.091767237554616
 20
2.65721400790683
 30
0.0
 11
7.091767237554616
 21
2.32121400790683
 31
0.0
  0
LINE
  5
17A
330
2
100
AcDbEntity
  8
AM_VIS
100
AcDbLine
 10
6.956767237554617
 20
2.65721400790683
 30
0.0
 11
7.231767237554619
 21
2.65721400790683
 31
0.0
  0
LINE
  5
17B
330
2
100
AcDbEntity
  8
AM_VIS
100
AcDbLine
 10
7.176767237554619
 20
2.65721400790683
 30
0.0
 11
7.176767237554619
 21
2.32121400790683
 31
0.0
  0
LINE
  5
17C
330
2
100
AcDbEntity
  8
AM_VIS
100
AcDbLine
 10
6.95676723755462
 20
2.19841042763256
 30
0.0
 11
6.871767237554619
 21
2.19841042763256
 31
0.0
  0
LINE
  5
17D
330
2
100
AcDbEntity
  8
AM_VIS
100
AcDbLine
 10
6.811767237554619
 20
3.09921400790683
 30
0.0
 11
6.956767237554617
 21
3.09921400790683
 31
0.0
  0
LINE
  5
17E
330
2
100
AcDbEntity
  8
AM_VIS
100
AcDbLine
 10
6.811767237554619
 20
1.87921400790683
 30
0.0
 11
6.811767237554619
 21
3.09921400790683
 31
0.0
  0
LINE
  5
17F
330
2
100
AcDbEntity
  8
AM_VIS
100
AcDbLine
 10
6.871767237554619
 20
2.22040775232727
 30
0.0
 11
6.956767237554617
 21
2.22040775232727
 31
0.0
  0
LINE
  5
180
330
2
100
AcDbEntity
  8
AM_VIS
100
AcDbLine
 10
6.956767237554617
 20
2.758020263486388
 30
0.0
 11
6.951767237554618
 21
2.758020263486388
 31
0.0
  0
LINE
  5
181
330
2
100
AcDbEntity
  8
AM_VIS
100
AcDbLine
 10
1.218559618497939
 20
1.994714007906832
 30
0.0
 11
0.8957672375546197
 21
1.994714007906832
 31
0.0
  0
LINE
  5
182
330
2
100
AcDbEntity
  8
AM_VIS
100
AcDbLine
 10
1.218559618497939
 20
2.979714007906833
 30
0.0
 11
0.8957672375546197
 21
2.979714007906833
 31
0.0
  0
LINE
  5
183
330
2
100
AcDbEntity
  8
AM_VIS
100
AcDbLine
 10
0.8957672375546197
 20
1.994714007906832
 30
0.0
 11
0.8957672375546197
 21
2.487214007906832
 31
0.0
  0
LINE
  5
184
330
2
100
AcDbEntity
  8
AM_VIS
100
AcDbLine
 10
0.8957672375546197
 20
2.487214007906832
 30
0.0
 11
0.8957672375546197
 21
2.979714007906833
 31
0.0
  0
ARC
  5
185
330
2
100
AcDbEntity
  8
AM_VIS
100
AcDbCircle
 10
1.170767237554619
 20
2.114609795989652
 30
0.0
 40
0.3
100
AcDbArc
 50
180.0
 51
203.5564643091015
  0
ARC
  5
186
330
2
100
AcDbEntity
  8
AM_VIS
100
AcDbCircle
 10
1.170767237554619
 20
2.859818219824014
 30
0.0
 40
0.3
100
AcDbArc
 50
156.4435356908986
 51
180.0
  0
LINE
  5
187
330
2
100
AcDbEntity
  8
AM_VIS
100
AcDbLine
 10
0.8707672375546192
 20
2.859818219824014
 30
0.0
 11
0.8707672375546192
 21
2.11460979598965
 31
0.0
  0
LINE
  5
188
330
2
100
AcDbEntity
  8
AM_VIS
100
AcDbLine
 10
4.744267237554613
 20
2.982214007906841
 30
0.0
 11
4.794267237554612
 21
2.982214007906841
 31
0.0
  0
LINE
  5
189
330
2
100
AcDbEntity
  8
AM_VIS
100
AcDbLine
 10
4.744267237554613
 20
1.99221400790684
 30
0.0
 11
4.794267237554612
 21
1.99221400790684
 31
0.0
  0
LINE
  5
18A
330
2
100
AcDbEntity
  8
AM_VIS
100
AcDbLine
 10
4.794267237554612
 20
3.077214007906841
 30
0.0
 11
4.856767237554612
 21
3.077214007906841
 31
0.0
  0
LINE
  5
18B
330
2
100
AcDbEntity
  8
AM_VIS
100
AcDbLine
 10
4.794267237554612
 20
1.897214007906842
 30
0.0
 11
4.856767237554612
 21
1.897214007906842
 31
0.0
  0
LINE
  5
18C
330
2
100
AcDbEntity
  8
AM_VIS
100
AcDbLine
 10
4.744267237554613
 20
1.99221400790684
 30
0.0
 11
4.744267237554613
 21
2.982214007906841
 31
0.0
  0
LINE
  5
18D
330
2
100
AcDbEntity
  8
AM_VIS
100
AcDbLine
 10
4.794267237554612
 20
1.897214007906842
 30
0.0
 11
4.794267237554612
 21
3.077214007906841
 31
0.0
  0
LINE
  5
18E
330
2
100
AcDbEntity
  8
AM_VIS
100
AcDbLine
 10
4.856767237554612
 20
1.897214007906842
 30
0.0
 11
4.856767237554612
 21
3.077214007906841
 31
0.0
  0
INSERT
  5
18F
330
2
100
AcDbEntity
  8
0
 62
     2
100
AcDbBlockReference
  2
*U0
 10
-0.0548057835625411
 20
-0.2084115909354689
 30
0.0
 41
0.5
 42
0.5
 43
0.5
  0
INSERT
  5
194
330
2
100
AcDbEntity
  8
0
 62
     2
100
AcDbBlockReference
  2
*U1
 10
-0.0548057835625411
 20
-0.2084115909354689
 30
0.0
 41
0.5
 42
0.5
 43
0.5
  0
INSERT
  5
199
330
2
100
AcDbEntity
  8
0
 62
     2
100
AcDbBlockReference
  2
*U2
 10
-0.0548057835625411
 20
-0.2084115909354689
 30
0.0
 41
0.5
 42
0.5
 43
0.5
  0
INSERT
  5
19E
330
2
100
AcDbEntity
  8
0
 62
     2
100
AcDbBlockReference
  2
*U3
 10
-0.0548057835625411
 20
-0.2084115909354689
 30
0.0
 41
0.5
 42
0.5
 43
0.5
  0
INSERT
  5
1A3
330
2
100
AcDbEntity
  8
0
 62
     2
100
AcDbBlockReference
  2
*U4
 10
-0.2450370285375829
 20
6.849069634710706
 30
0.0
 41
0.5
 42
0.5
 43
0.5
  0
INSERT
  5
1A8
330
2
100
AcDbEntity
  8
0
 62
     2
100
AcDbBlockReference
  2
*U5
 10
-0.2450370285375829
 20
6.849069634710706
 30
0.0
 41
0.5
 42
0.5
 43
0.5
  0
INSERT
  5
1AD
330
2
100
AcDbEntity
  8
0
 62
     2
100
AcDbBlockReference
  2
*U6
 10
-0.2450370285375829
 20
6.849069634710706
 30
0.0
 41
0.5
 42
0.5
 43
0.5
  0
INSERT
  5
1B2
330
2
100
AcDbEntity
  8
0
 62
     2
100
AcDbBlockReference
  2
*U7
 10
-0.2450370285375829
 20
6.849069634710706
 30
0.0
 41
0.5
 42
0.5
 43
0.5
  0
MTEXT
  5
1B7
330
2
100
AcDbEntity
  8
L-INSPECTION
 62
     7
100
AcDbMText
 10
11.60703612160645
 20
7.743135575448326
 30
0.0
 40
0.09
 41
0.0
 71
     4
 72
     5
  1

 73
     1
 44
1.0
1001
ACAD
1000
MTEXTBEGIN
1070
    73
1070
     1
1070
    44
1040
1.0
1070
    74
1070
     0
1000
MTEXTEND
  0
MTEXT
  5
1B9
330
2
100
AcDbEntity
  8
CENTER
 62
     7
100
AcDbMText
 10
7.275484924782435
 20
2.401758945068344
 30
0.0
 40
0.09
 41
0.0
 71
     4
 72
     5
  1

 73
     1
 44
1.0
1001
ACAD
1000
MTEXTBEGIN
1070
    73
1070
     1
1070
    44
1040
1.0
1070
    74
1070
     0
1000
MTEXTEND
  0
MTEXT
  5
1BC
330
2
100
AcDbEntity
  8
L-INSPECTION
 62
     7
100
AcDbMText
 10
15.68751039568251
 20
6.05647880372676
 30
0.0
 40
0.09
 41
0.0
 71
     6
 72
     5
  1

 73
     1
 44
1.0
1001
ACAD
1000
MTEXTBEGIN
1070
    73
1070
     1
1070
    44
1040
1.0
1070
    74
1070
     0
1000
MTEXTEND
  0
MTEXT
  5
1BD
330
2
100
AcDbEntity
  8
L-INSPECTION
 62
     7
100
AcDbMText
 10
16.7969312490784
 20
8.710330936709382
 30
0.0
 40
0.09
 41
0.0
 71
     4
 72
     5
  1

 73
     1
 44
1.0
1001
ACAD
1000
MTEXTBEGIN
1070
    73
1070
     1
1070
    44
1040
1.0
1070
    74
1070
     0
1000
MTEXTEND
  0
MTEXT
  5
1BE
330
2
100
AcDbEntity
  8
L-INSPECTION
 62
     7
100
AcDbMText
 10
17.00478426970537
 20
8.515243676186187
 30
0.0
 40
0.09
 41
0.0
 71
     4
 72
     5
  1

 73
     1
 44
1.0
1001
ACAD
1000
MTEXTBEGIN
1070
    73
1070
     1
1070
    44
1040
1.0
1070
    74
1070
     0
1000
MTEXTEND
  0
LINE
  5
1BF
330
2
100
AcDbEntity
  8
10
100
AcDbLine
 10
0.0264442164374607
 20
-0.2084115909354687
 30
0.0
 11
8.276444216437456
 21
-0.2084115909354738
 31
0.0
  0
LINE
  5
1C1
330
2
100
AcDbEntity
  8
10
100
AcDbLine
 10
8.276444216437456
 20
5.041588409064529
 30
0.0
 11
8.276444216437456
 21
-0.2084115909354738
 31
0.0
  0
CIRCLE
  5
1C2
330
2
100
AcDbEntity
  8
10
 62
     1
100
AcDbCircle
 10
0.0264442164374589
 20
-0.2084115909354689
 30
0.000000005
 40
0.0707941886868753
  0
LINE
  5
1C3
330
2
100
AcDbEntity
  8
10
100
AcDbLine
 10
0.0264442164374643
 20
5.041588409064532
 30
0.0
 11
8.276444216437456
 21
5.041588409064529
 31
0.0
  0
LINE
  5
1C4
330
2
100
AcDbEntity
  8
10
100
AcDbLine
 10
0.0264442164374643
 20
5.041588409064532
 30
0.0
 11
0.0264442164374607
 21
-0.2084115909354685
 31
0.0
  0
LINE
  5
1C5
330
2
100
AcDbEntity
  8
10
100
AcDbLine
 10
5.067189233639915
 20
0.0415884090645311
 30
0.0
 11
8.276444216437456
 21
0.0415884090645311
 31
0.0
  0
LINE
  5
1C6
330
2
100
AcDbEntity
  8
10
370
    50
100
AcDbLine
 10
5.067189233639915
 20
0.0415884090645267
 30
0.0
 11
8.276444216437456
 21
0.0415884090645267
 31
0.0
  0
LINE
  5
1C7
330
2
100
AcDbEntity
  8
10
370
    50
100
AcDbLine
 10
5.067189233639915
 20
0.0415884090645267
 30
0.0
 11
5.067189233639915
 21
-0.2084115909354769
 31
0.0
  0
MTEXT
  5
1C8
330
2
100
AcDbEntity
  8
10
 62
     7
100
AcDbMText
 10
6.800544763122781
 20
-0.0049135119036579
 30
0.0
 40
0.045
 41
2.25
 71
     1
 72
     5
  1
\LSCALE:
 73
     1
 44
1.0
1001
ACAD
1000
MTEXTBEGIN
1070
    73
1070
     1
1070
    44
1040
1.0
1070
    74
1070
     0
1000
MTEXTEND
  0
MTEXT
  5
1C9
330
2
100
AcDbEntity
  8
10
 62
     7
100
AcDbMText
 10
7.450212470244367
 20
-0.0004410946389002
 30
0.0
 40
0.045
 41
2.25
 71
     1
 72
     5
  1
\LDRAWING NO.
 73
     1
 44
1.0
1001
ACAD
1000
MTEXTBEGIN
1070
    73
1070
     1
1070
    44
1040
1.0
1070
    74
1070
     0
1000
MTEXTEND
  0
LINE
  5
1CA
330
2
100
AcDbEntity
  8
10
370
    50
100
AcDbLine
 10
6.776444216437456
 20
0.7915884090645267
 30
0.0
 11
6.776444216437456
 21
-0.2084115909354742
 31
0.0
  0
LINE
  5
1CB
330
2
100
AcDbEntity
  8
10
370
    50
100
AcDbLine
 10
7.276444216437456
 20
0.2915884090645267
 30
0.0
 11
7.276444216437456
 21
-0.2084115909354733
 31
0.0
  0
MTEXT
  5
1CC
330
2
100
AcDbEntity
  8
10
 62
     1
100
AcDbMText
 10
7.433268422063299
 20
-0.1275934648856452
 30
0.0
 40
0.0625
 41
1.1672
 71
     1
 72
     5
  1
22P90073
 73
     1
 44
1.0
1001
ACAD
1000
MTEXTBEGIN
1070
    73
1070
     1
1070
    44
1040
1.0
1070
    74
1070
     0
1000
MTEXTEND
  0
MTEXT
  5
1CD
330
2
100
AcDbEntity
  8
10
 62
     1
100
AcDbMText
 10
6.836325972774147
 20
-0.1275934648856452
 30
0.0
 40
0.0625
 41
1.1672
 71
     1
 72
     5
  1
2.0:1.0
 73
     1
 44
1.0
1001
ACAD
1000
MTEXTBEGIN
1070
    73
1070
     1
1070
    44
1040
1.0
1070
    74
1070
     0
1000
MTEXTEND
  0
MTEXT
  5
1CE
330
2
100
AcDbEntity
  8
10
 62
     1
100
AcDbMText
 10
7.433268422063299
 20
0.1224065351143548
 30
0.0
 40
0.0625
 41
1.1672
 71
     1
 72
     5
  1
02-11-04
 73
     1
 44
1.0
1001
ACAD
1000
MTEXTBEGIN
1070
    73
1070
     1
1070
    44
1040
1.0
1070
    74
1070
     0
1000
MTEXTEND
  0
LINE
  5
1CF
330
2
100
AcDbEntity
  8
10
100
AcDbLine
 10
6.823319216437456
 20
0.3072134090645266
 30
0.0
 11
8.229569216437456
 21
0.3072134090645266
 31
0.0
  0
LINE
  5
1D0
330
2
100
AcDbEntity
  8
10
100
AcDbLine
 10
6.823319216437456
 20
0.7759634090645267
 30
0.0
 11
8.229569216437456
 21
0.7759634090645267
 31
0.0
  0
MTEXT
  5
1D1
330
2
100
AcDbEntity
  8
10
 62
     7
100
AcDbMText
 10
7.457028054812153
 20
0.2345026802200514
 30
0.0
 40
0.045
 41
2.25
 71
     1
 72
     5
  1
\LDATE:
 73
     1
 44
1.0
1001
ACAD
1000
MTEXTBEGIN
1070
    73
1070
     1
1070
    44
1040
1.0
1070
    74
1070
     0
1000
MTEXTEND
  0
LINE
  5
1D2
330
2
100
AcDbEntity
  8
10
370
    50
100
AcDbLine
 10
6.776444216437456
 20
0.2915884090645267
 30
0.0
 11
8.276444216437456
 21
0.2915884090645267
 31
0.0
  0
LINE
  5
1D3
330
2
100
AcDbEntity
  8
10
100
AcDbLine
 10
6.792069216437456
 20
0.7447134090645267
 30
0.0
 11
6.792069216437456
 21
0.3384634090645266
 31
0.0
  0
MTEXT
  5
1D4
330
2
100
AcDbEntity
  8
10
 62
     1
100
AcDbMText
 10
6.836325972774147
 20
0.1224065351143548
 30
0.0
 40
0.0625
 41
1.1672
 71
     1
 72
     5
  1
PAD
 73
     1
 44
1.0
1001
ACAD
1000
MTEXTBEGIN
1070
    73
1070
     1
1070
    44
1040
1.0
1070
    74
1070
     0
1000
MTEXTEND
  0
MTEXT
  5
1D5
330
2
100
AcDbEntity
  8
10
 62
     7
100
AcDbMText
 10
6.808353617161616
 20
0.2266956234400932
 30
0.0
 40
0.045
 41
2.25
 71
     1
 72
     5
  1
\LDRAWN BY:
 73
     1
 44
1.0
1001
ACAD
1000
MTEXTBEGIN
1070
    73
1070
     1
1070
    44
1040
1.0
1070
    74
1070
     0
1000
MTEXTEND
  0
ARC
  5
1D6
330
2
100
AcDbEntity
  8
10
100
AcDbCircle
 10
6.823319216437456
 20
0.3384634090645266
 30
0.000000005
 40
0.03125
100
AcDbArc
 50
180.0
 51
270.0
  0
MTEXT
  5
1D7
330
2
100
AcDbEntity
  8
10
 62
     1
100
AcDbMText
 10
6.82081518209403
 20
0.6380562098808729
 30
0.0
 40
0.0625
 41
1.45
 71
     1
 72
     5
  1
22MM IEC 1 INCH HOLE ADAPTER INSTALLATION DRAWING
 73
     1
 44
1.0
1001
ACAD
1000
MTEXTBEGIN
1070
    73
1070
     1
1070
    44
1040
1.0
1070
    74
1070
     0
1000
MTEXTEND
  0
MTEXT
  5
1D8
330
2
100
AcDbEntity
  8
10
 62
     7
100
AcDbMText
 10
6.822977224791723
 20
0.7344073224572713
 30
0.0
 40
0.045
 41
0.0
 71
     1
 72
     5
  1
{\LTITLE:}
 73
     1
 44
1.0
1001
ACAD
1000
MTEXTBEGIN
1070
    73
1070
     1
1070
    44
1040
1.0
1070
    74
1070
     0
1000
MTEXTEND
  0
ARC
  5
1D9
330
2
100
AcDbEntity
  8
10
100
AcDbCircle
 10
6.823319216437456
 20
0.7447134090645267
 30
0.000000005
 40
0.03125
100
AcDbArc
 50
90.0
 51
180.0
  0
LINE
  5
1DA
330
2
100
AcDbEntity
  8
10
100
AcDbLine
 10
8.260819216437456
 20
0.7447134090645267
 30
0.0
 11
8.260819216437456
 21
0.3384634090645266
 31
0.0
  0
ARC
  5
1DB
330
2
100
AcDbEntity
  8
10
100
AcDbCircle
 10
8.229569216437456
 20
0.3384634090645266
 30
0.000000005
 40
0.03125
100
AcDbArc
 50
270.0
 51
0.0
  0
ARC
  5
1DC
330
2
100
AcDbEntity
  8
10
100
AcDbCircle
 10
8.229569216437456
 20
0.7447134090645267
 30
0.000000005
 40
0.03125
100
AcDbArc
 50
0.0
 51
90.0
  0
MTEXT
  5
1DD
330
2
100
AcDbEntity
  8
10
 62
     7
100
AcDbMText
 10
5.354781886851402
 20
-0.0496853169577576
 30
0.0
 40
0.0625
 41
0.6406000707903888
 71
     1
 72
     5
  1
C3CONTROLS
 73
     1
 44
1.0
1001
ACAD
1000
MTEXTBEGIN
1070
    73
1070
     1
1070
    44
1040
1.0
1070
    74
1070
     0
1000
MTEXTEND
  0
ARC
  5
1DE
330
2
100
AcDbEntity
  8
0
 62
     5
100
AcDbCircle
 10
5.251294955941606
 20
-0.1107335117331838
 30
0.000000005
 40
0.044296875
100
AcDbArc
 50
323.9681209275293
 51
45.58469140280712
  0
ARC
  5
1DF
330
2
100
AcDbEntity
  8
0
 62
     5
100
AcDbCircle
 10
5.251294955941606
 20
-0.1107335117331838
 30
0.000000005
 40
0.0253125
100
AcDbArc
 50
323.9681209275293
 51
90.0
  0
CIRCLE
  5
1E0
330
2
100
AcDbEntity
  8
0
 62
     5
100
AcDbCircle
 10
5.207796288212144
 20
-0.0790928867331838
 30
0.000000005
 40
0.10905
  0
ARC
  5
1E1
330
2
100
AcDbEntity
  8
0
 62
     5
100
AcDbCircle
 10
5.207796288212144
 20
-0.0790928867331838
 30
0.000000005
 40
0.0980859375
100
AcDbArc
 50
129.16671071612
 51
230.8332892838798
  0
ARC
  5
1E2
330
2
100
AcDbEntity
  8
0
 62
     5
100
AcDbCircle
 10
5.207796288212144
 20
-0.0790928867331838
 30
0.000000005
 40
0.0791015625
100
AcDbArc
 50
129.16671071612
 51
230.8332892838798
  0
LINE
  5
1E3
330
2
100
AcDbEntity
  8
0
 62
     5
100
AcDbLine
 10
5.188811913212143
 20
-0.1130461878611196
 30
0.0
 11
5.207796288212144
 21
-0.1130461878611196
 31
0.0
  0
ARC
  5
1E4
330
2
100
AcDbEntity
  8
0
 62
     5
100
AcDbCircle
 10
5.169827538212143
 20
-0.1257024378611196
 30
0.000000005
 40
0.03796875
100
AcDbArc
 50
230.8332892838798
 51
0.0000000000000763
  0
ARC
  5
1E5
330
2
100
AcDbEntity
  8
0
 62
     5
100
AcDbCircle
 10
5.169827538212143
 20
-0.1257024378611196
 30
0.000000005
 40
0.018984375
100
AcDbArc
 50
230.8332892838798
 51
0.0000000000000763
  0
LINE
  5
1E6
330
2
100
AcDbEntity
  8
0
 62
     5
100
AcDbLine
 10
5.188811913212143
 20
-0.1257024378611196
 30
0.0
 11
5.188811913212143
 21
-0.1130461878611196
 31
0.0
  0
LINE
  5
1E7
330
2
100
AcDbEntity
  8
0
 62
     5
100
AcDbLine
 10
5.226780663212143
 20
-0.1257024378611196
 30
0.0
 11
5.226780663212143
 21
-0.1130461878611196
 31
0.0
  0
ARC
  5
1E8
330
2
100
AcDbEntity
  8
0
 62
     5
100
AcDbCircle
 10
5.245765038212144
 20
-0.1257024378611196
 30
0.000000005
 40
0.018984375
100
AcDbArc
 50
179.9999999999999
 51
309.16671071612
  0
ARC
  5
1E9
330
2
100
AcDbEntity
  8
0
 62
     5
100
AcDbCircle
 10
5.207796288212144
 20
-0.0790928867331838
 30
0.000000005
 40
0.0980859375
100
AcDbArc
 50
309.16671071612
 51
323.9681209275294
  0
ARC
  5
1EA
330
2
100
AcDbEntity
  8
0
 62
     5
100
AcDbCircle
 10
5.207796288212144
 20
-0.0790928867331838
 30
0.000000005
 40
0.0791015625
100
AcDbArc
 50
309.16671071612
 51
323.9681209275293
  0
LINE
  5
1EB
330
2
100
AcDbEntity
  8
0
 62
     5
100
AcDbLine
 10
5.207796288212144
 20
-0.1257024378611196
 30
0.0
 11
5.207796288212144
 21
-0.1130461878611196
 31
0.0
  0
ARC
  5
1EC
330
2
100
AcDbEntity
  8
0
 62
     5
100
AcDbCircle
 10
5.245765038212144
 20
-0.1257024378611196
 30
0.000000005
 40
0.03796875
100
AcDbArc
 50
179.9999999999999
 51
309.16671071612
  0
LINE
  5
1ED
330
2
100
AcDbEntity
  8
0
 62
     5
100
AcDbLine
 10
5.207796288212144
 20
-0.1130461878611196
 30
0.0
 11
5.226780663212143
 21
-0.1130461878611196
 31
0.0
  0
LINE
  5
1EE
330
2
100
AcDbEntity
  8
0
 62
     5
100
AcDbLine
 10
5.188811913212143
 20
-0.0451395856052481
 30
0.0
 11
5.207796288212144
 21
-0.0451395856052481
 31
0.0
  0
ARC
  5
1EF
330
2
100
AcDbEntity
  8
0
 62
     5
100
AcDbCircle
 10
5.169827538212143
 20
-0.0324833356052481
 30
0.000000005
 40
0.03796875
100
AcDbArc
 50
0.0
 51
129.1667107161201
  0
ARC
  5
1F0
330
2
100
AcDbEntity
  8
0
 62
     5
100
AcDbCircle
 10
5.169827538212143
 20
-0.0324833356052481
 30
0.000000005
 40
0.018984375
100
AcDbArc
 50
0.0
 51
129.1667107161201
  0
LINE
  5
1F1
330
2
100
AcDbEntity
  8
0
 62
     5
100
AcDbLine
 10
5.188811913212143
 20
-0.0324833356052481
 30
0.0
 11
5.188811913212143
 21
-0.0451395856052481
 31
0.0
  0
ARC
  5
1F2
330
2
100
AcDbEntity
  8
0
 62
     5
100
AcDbCircle
 10
5.207796288212144
 20
-0.0790928867331838
 30
0.000000005
 40
0.0980859375
100
AcDbArc
 50
36.0318790724706
 51
50.83328928387981
  0
LINE
  5
1F3
330
2
100
AcDbEntity
  8
0
 62
     5
100
AcDbLine
 10
5.226780663212143
 20
-0.0324833356052481
 30
0.0
 11
5.226780663212143
 21
-0.0451395856052481
 31
0.0
  0
ARC
  5
1F4
330
2
100
AcDbEntity
  8
0
 62
     5
100
AcDbCircle
 10
5.245765038212144
 20
-0.0324833356052481
 30
0.000000005
 40
0.018984375
100
AcDbArc
 50
50.83328928387981
 51
180.0
  0
ARC
  5
1F5
330
2
100
AcDbEntity
  8
0
 62
     5
100
AcDbCircle
 10
5.207796288212144
 20
-0.0790928867331838
 30
0.000000005
 40
0.0791015625
100
AcDbArc
 50
36.0318790724706
 51
50.83328928387981
  0
LINE
  5
1F6
330
2
100
AcDbEntity
  8
0
 62
     5
100
AcDbLine
 10
5.207796288212144
 20
-0.0324833356052481
 30
0.0
 11
5.207796288212144
 21
-0.0451395856052481
 31
0.0
  0
ARC
  5
1F7
330
2
100
AcDbEntity
  8
0
 62
     5
100
AcDbCircle
 10
5.245765038212144
 20
-0.0324833356052481
 30
0.000000005
 40
0.03796875
100
AcDbArc
 50
50.83328928387981
 51
180.0
  0
LINE
  5
1F8
330
2
100
AcDbEntity
  8
0
 62
     5
100
AcDbLine
 10
5.207796288212144
 20
-0.0451395856052481
 30
0.0
 11
5.226780663212143
 21
-0.0451395856052481
 31
0.0
  0
LINE
  5
1F9
330
2
100
AcDbEntity
  8
0
 62
     5
100
AcDbLine
 10
5.239081400838886
 20
-0.0727647617331839
 30
0.0
 11
5.251294955941606
 21
-0.0727647617331838
 31
0.0
  0
LINE
  5
1FA
330
2
100
AcDbEntity
  8
0
 62
     5
100
AcDbLine
 10
5.239081400838886
 20
-0.0854210117331839
 30
0.0
 11
5.251294955941606
 21
-0.0854210117331839
 31
0.0
  0
LINE
  5
1FB
330
2
100
AcDbEntity
  8
0
 62
     5
100
AcDbLine
 10
5.239081400838886
 20
-0.0727647617331839
 30
0.0
 11
5.239081400838886
 21
-0.0854210117331839
 31
0.0
  0
ARC
  5
1FC
330
2
100
AcDbEntity
  8
0
 62
     5
100
AcDbCircle
 10
5.251294955941606
 20
-0.0474522617331839
 30
0.000000005
 40
0.044296875
100
AcDbArc
 50
314.4153085971928
 51
36.0318790724706
  0
ARC
  5
1FD
330
2
100
AcDbEntity
  8
0
 62
     5
100
AcDbCircle
 10
5.251294955941606
 20
-0.0474522617331839
 30
0.000000005
 40
0.0253125
100
AcDbArc
 50
270.0
 51
36.0318790724706
  0
MTEXT
  5
1FE
330
2
100
AcDbEntity
  8
10
 62
     7
100
AcDbMText
 10
5.998308883933348
 20
0.023450498165746
 30
0.0
 40
0.05
 41
3.399999999999999
 71
     1
 72
     5
  1
P.O. BOX 496\P664 STATE STREET\PBEAVER, PA 15009
 73
     1
 44
1.0
1001
ACAD
1000
MTEXTBEGIN
1070
    73
1070
     1
1070
    44
1040
1.0
1070
    74
1070
     0
1000
MTEXTEND
  0
LINE
  5
1FF
330
2
100
AcDbEntity
  8
0
100
AcDbLine
 10
6.776444216437456
 20
0.7915884090645267
 30
0.0
 11
8.276444216437456
 21
0.7915884090645267
 31
0.0
  0
LINE
  5
200
330
2
100
AcDbEntity
  8
0
100
AcDbLine
 10
1.218559618497939
 20
2.979714007906833
 30
0.0
 11
1.218559618497939
 21
1.994714007906834
 31
0.0
  0
LINE
  5
201
330
2
100
AcDbEntity
  8
CENTER
100
AcDbLine
 10
0.8385596372808448
 20
2.487203881322876
 30
0.0
 11
7.269267235701042
 21
2.48922579850521
 31
0.0
  0
LINE
  5
202
102
{ACAD_REACTORS
330
208
102
}
330
2
100
AcDbEntity
  8
0
100
AcDbLine
 10
4.141823210693345
 20
2.988214839914042
 30
0.0
 11
4.016823210693345
 21
2.988214839914042
 31
0.0
  0
LINE
  5
203
102
{ACAD_REACTORS
330
208
102
}
330
2
100
AcDbEntity
  8
0
100
AcDbLine
 10
4.016823210693345
 20
1.988214839914043
 30
0.0
 11
4.141823210693345
 21
1.988214839914043
 31
0.0
  0
LINE
  5
204
102
{ACAD_REACTORS
330
208
102
}
330
2
100
AcDbEntity
  8
0
100
AcDbLine
 10
4.141823210693345
 20
3.988214839914042
 30
0.0
 11
4.141823210693345
 21
0.9882148399140431
 31
0.0
  0
LINE
  5
205
102
{ACAD_REACTORS
330
208
102
}
330
2
100
AcDbEntity
  8
0
100
AcDbLine
 10
4.016823210693345
 20
3.988214839914042
 30
0.0
 11
4.016823210693345
 21
0.9882148399140431
 31
0.0
  0
SPLINE
  5
206
102
{ACAD_REACTORS
330
208
330
213
102
}
330
2
100
AcDbEntity
  8
0
 62
     1
100
AcDbSpline
210
0.0
220
0.0
230
1.0
 70
     8
 71
     3
 72
    10
 73
     6
 74
     4
 42
0.0000000001
 43
0.0000000001
 44
0.0000000001
 40
0.0
 40
0.0
 40
0.0
 40
0.0
 40
0.0543461397069784
 40
0.1151646905544212
 40
0.149127333104756
 40
0.149127333104756
 40
0.149127333104756
 40
0.149127333104756
 10
4.016823210693345
 20
3.988214839914042
 30
0.0
 10
4.034912592760609
 20
3.999878508984373
 30
0.0
 10
4.073245731035559
 20
4.024594944161854
 30
0.0
 10
4.108882989627794
 20
3.947612594533122
 30
0.0
 10
4.133133575610316
 20
3.977503961708045
 30
0.0
 10
4.141823210693345
 20
3.988214839914042
 30
0.0
 11
4.016823210693345
 21
3.988214839914042
 31
0.0
 11
4.068683643577575
 21
4.004462867551595
 31
0.0
 11
4.115959810926987
 21
3.966202442463347
 31
0.0
 11
4.141823210693345
 21
3.988214839914042
 31
0.0
  0
SPLINE
  5
207
102
{ACAD_REACTORS
330
208
102
}
330
2
100
AcDbEntity
  8
0
 62
     1
100
AcDbSpline
210
0.0
220
0.0
230
1.0
 70
     8
 71
     3
 72
    10
 73
     6
 74
     4
 42
0.0000000001
 43
0.0000000001
 44
0.0000000001
 12
0.2574070433805114
 22
-0.966303065305137
 32
0.0
 13
-0.0179553850999028
 23
-0.9998387890784766
 33
0.0
 40
0.0
 40
0.0
 40
0.0
 40
0.0
 40
0.0783061181386027
 40
0.178794995231883
 40
0.2075291889100331
 40
0.2075291889100331
 40
0.2075291889100331
 40
0.2075291889100331
 10
4.016823210693345
 20
0.9882148399140431
 30
0.0
 10
4.023542059476232
 20
0.9629923592508838
 30
0.0
 10
4.07354743534229
 20
0.864518781009502
 30
0.0
 10
4.081084247744817
 20
1.025548764392667
 30
0.0
 10
4.14199518853102
 20
0.9977913603848126
 30
0.0
 10
4.141823210693345
 20
0.9882148399140431
 30
0.0
 11
4.016823210693345
 21
0.9882148399140431
 31
0.0
 11
4.058997125310756
 21
0.92223598675805
 31
0.0
 11
4.117686400525353
 21
1.003805487150376
 31
0.0
 11
4.141823210693345
 21
0.9882148399140431
 31
0.0
  0
HATCH
  5
208
330
2
100
AcDbEntity
  8
0
 62
     1
100
AcDbHatch
 10
0.0
 20
0.0
 30
0.0
210
0.0
220
0.0
230
1.0
  2
ANSI31
 70
     0
 71
     1
 91
        2
 92
        5
 93
        4
 72
     4
 94
        3
 73
     0
 74
     0
 95
       10
 96
        6
 40
0.0
 40
0.0
 40
0.0
 40
0.0
 40
0.0679252851006692
 40
0.189562386795555
 40
0.2982546662095115
 40
0.2982546662095115
 40
0.2982546662095115
 40
0.2982546662095115
 10
4.141823210693345
 20
3.988214839914042
 10
4.133133575610318
 20
3.977503961708045
 10
4.108882989627792
 20
3.947612594533123
 10
4.07324573103556
 20
4.024594944161853
 10
4.034912592760609
 20
3.999878508984373
 10
4.016823210693345
 20
3.988214839914042
 72
     1
 10
4.016823210693344
 20
3.988214839914042
 11
4.016823210693344
 21
2.988214839914042
 72
     1
 10
4.016823210693344
 20
2.988214839914042
 11
4.141823210693345
 21
2.988214839914041
 72
     1
 10
4.141823210693345
 20
2.988214839914041
 11
4.141823210693345
 21
3.988214839914042
 97
        4
330
206
330
205
330
202
330
204
 92
        5
 93
        4
 72
     1
 10
4.141823210693345
 20
1.988214839914043
 11
4.016823210693345
 21
1.988214839914043
 72
     1
 10
4.016823210693345
 20
1.988214839914043
 11
4.016823210693345
 21
0.9882148399140433
 72
     4
 94
        3
 73
     0
 74
     0
 95
       10
 96
        6
 40
0.0
 40
0.0
 40
0.0
 40
0.0
 40
0.1566122362772064
 40
0.3575899904637682
 40
0.4143341635395431
 40
0.4143341635395431
 40
0.4143341635395431
 40
0.4143341635395431
 10
4.016823210693345
 20
0.9882148399140431
 10
4.023542059476231
 20
0.9629923592508838
 10
4.07354743534229
 20
0.8645187810095016
 10
4.08107109714369
 20
1.025267791354198
 10
4.141654262340416
 20
0.997945917931711
 10
4.141823210693313
 20
0.9885752608942686
 72
     1
 10
4.141823210693345
 20
0.9885752608942354
 11
4.141823210693345
 21
1.988214839914043
 97
        4
330
203
330
205
330
207
330
204
 75
     0
 76
     1
 52
0.0
 41
0.25
 77
     0
 78
     1
 53
45.0
 43
0.0
 44
0.0
 45
-0.0220970869120796
 46
0.0220970869120796
 79
     0
 47
0.0109421250679074
 98
        2
 10
4.085799236836066
 20
3.190374723679276
 10
4.080326636869497
 20
1.751485277767591
  0
LINE
  5
209
330
2
100
AcDbEntity
  8
0
 62
     1
100
AcDbLine
 10
4.081415854849703
 20
0.9656483669990944
 30
0.0
 11
4.081415854849703
 21
0.5517076888077739
 31
0.0
  0
LEADER
  5
20A
330
2
100
AcDbEntity
  8
0
 62
     1
100
AcDbLeader
  3
Standard
 73
     0
 40
0.18
 76
     2
 10
3.749102396422013
 20
0.5517076888077739
 30
0.0
 10
4.081415854849703
 20
0.5517076888077739
 30
0.0
340
20B
213
0.0
223
-0.045
233
0.0
1001
ACAD
1000
DSTYLE
1002
{
1070
   147
1040
0.09
1070
    77
1070
     0
1002
}
  0
MTEXT
  5
20B
102
{ACAD_REACTORS
330
20A
102
}
330
2
100
AcDbEntity
  8
0
 62
     1
100
AcDbMText
 10
4.126415854849703
 20
0.5967076888077739
 30
0.0
 40
0.09
 41
0.0
 71
     1
 72
     1
  1

 73
     1
 44
1.0
1001
ACAD
1000
MTEXTBEGIN
1070
    73
1070
     1
1070
    44
1040
1.0
1070
    74
1070
     0
1000
MTEXTEND
  0
MTEXT
  5
20C
330
2
100
AcDbEntity
  8
0
 62
     1
100
AcDbMText
 10
3.287583781399511
 20
0.8113178718884553
 30
0.0
 40
0.0625
 41
0.75
 71
     1
 72
     5
  1
FRONT OF THE ENCLOSURE
  7
USER2
 73
     1
 44
1.0
1001
ACAD
1000
MTEXTBEGIN
1070
    73
1070
     1
1070
    44
1040
1.0
1070
    74
1070
     0
1000
MTEXTEND
  0
LEADER
  5
20D
330
2
100
AcDbEntity
  8
0
 62
     1
100
AcDbLeader
  3
Standard
 73
     0
 40
0.125
 41
1.428571428571428
 76
     3
 10
1.05716342802628
 20
2.979714007906833
 30
0.0
 10
1.249007058809159
 20
3.49050674541235
 30
0.0
 10
1.434419386277201
 20
3.49050674541235
 30
0.0
340
20E
213
0.0
223
-0.03125
233
0.0
1001
ACAD
1000
DSTYLE
1002
{
1070
   147
1040
0.09
1070
    77
1070
     0
1002
}
  0
MTEXT
  5
20E
102
{ACAD_REACTORS
330
20D
102
}
330
2
100
AcDbEntity
  8
0
 62
     1
100
AcDbMText
 10
1.479419386277201
 20
3.52175674541235
 30
0.0
 40
0.0625
 41
1.195589868805232
 71
     1
 72
     1
  1
\A1;W22 OPERATOR
 73
     1
 44
1.0
1001
ACAD
1000
MTEXTBEGIN
1070
    73
1070
     1
1070
    44
1040
1.0
1070
    74
1070
     0
1000
MTEXTEND
  0
LEADER
  5
20F
330
2
100
AcDbEntity
  8
0
 62
     1
100
AcDbLeader
  3
Standard
 73
     0
 40
0.125
 41
1.309523809523809
 76
     3
 10
3.463017237554613
 20
1.89346400790684
 30
0.0
 10
3.363882135182187
 20
1.414836725292086
 30
0.0
 10
3.199222960150346
 20
1.414836725292086
 30
0.0
340
210
213
0.0
223
0.03125
233
0.0
1001
ACAD
1000
DSTYLE
1002
{
1070
   147
1040
0.09
1070
    77
1070
     0
1002
}
  0
MTEXT
  5
210
102
{ACAD_REACTORS
330
20F
102
}
330
2
100
AcDbEntity
  8
0
 62
     1
100
AcDbMText
 10
3.154222960150346
 20
1.383586725292086
 30
0.0
 40
0.0625
 41
1.01265388239157
 71
     9
 72
     1
  1
\A1;22MM GASKET
 73
     1
 44
1.0
1001
ACAD
1000
MTEXTBEGIN
1070
    73
1070
     1
1070
    44
1040
1.0
1070
    74
1070
     0
1000
MTEXTEND
  0
LEADER
  5
211
102
{ACAD_XDICTIONARY
360
212
102
}
102
{ACAD_REACTORS
330
213
102
}
330
2
100
AcDbEntity
  8
0
 62
     1
100
AcDbLeader
  3
Standard
 73
     0
 40
0.5416666666666666
 41
1.494047619047617
 76
     3
 10
4.058766792145378
 20
4.006614981490426
 30
0.0
 10
4.002280236478718
 20
4.292997922345231
 30
0.0
 10
3.884503694798951
 20
4.292997922345231
 30
0.0
340
214
213
0.0
223
0.03125
233
0.0
1001
ACAD
1000
DSTYLE
1002
{
1070
   147
1040
0.09
1070
    77
1070
     0
1002
}
  0
MTEXT
  5
214
102
{ACAD_REACTORS
330
211
102
}
330
2
100
AcDbEntity
  8
0
 62
     1
100
AcDbMText
 10
3.839503694798951
 20
4.261747922345231
 30
0.0
 40
0.0625
 41
0.8391578659469088
 71
     9
 72
     1
  1
\A1;CROSS-SECTION OF AN ENCLOSURE
 73
     1
 44
1.0
1001
ACAD
1000
MTEXTBEGIN
1070
    73
1070
     1
1070
    44
1040
1.0
1070
    74
1070
     0
1000
MTEXTEND
  0
LEADER
  5
215
330
2
100
AcDbEntity
  8
0
 62
     1
100
AcDbLeader
  3
Standard
 73
     0
 40
0.3571428571428571
 41
2.202380952380951
 76
     3
 10
4.825517237554612
 20
1.897214007906842
 30
0.0
 10
4.947533168132975
 20
1.465819271144964
 30
0.0
 10
5.097817494185708
 20
1.465819271144964
 30
0.0
340
216
213
0.0
223
-0.03125
233
0.0
1001
ACAD
1000
DSTYLE
1002
{
1070
   147
1040
0.09
1070
    77
1070
     0
1002
}
  0
MTEXT
  5
216
102
{ACAD_REACTORS
330
215
102
}
330
2
100
AcDbEntity
  8
0
 62
     1
100
AcDbMText
 10
5.142817494185708
 20
1.497069271144964
 30
0.0
 40
0.0625
 41
1.121629721117497
 71
     1
 72
     1
  1
22P90071H01\PW22 1" HOLE ADAPTER
 73
     1
 44
1.0
1001
ACAD
1000
MTEXTBEGIN
1070
    73
1070
     1
1070
    44
1040
1.0
1070
    74
1070
     0
1000
MTEXTEND
  0
LEADER
  5
217
330
2
100
AcDbEntity
  8
0
 62
     1
100
AcDbLeader
  3
Standard
 73
     0
 40
0.3333333333333333
 41
1.999999999999999
 76
     3
 10
5.777070778583463
 20
3.095669175224136
 30
0.0
 10
5.881803712886742
 20
3.60024409507649
 30
0.0
 10
6.069459749070555
 20
3.60024409507649
 30
0.0
340
218
213
0.0
223
-0.03125
233
0.0
1001
ACAD
1000
DSTYLE
1002
{
1070
   147
1040
0.09
1070
    77
1070
     0
1002
}
  0
MTEXT
  5
218
102
{ACAD_REACTORS
330
217
102
}
330
2
100
AcDbEntity
  8
0
 62
     1
100
AcDbMText
 10
6.114459749070555
 20
3.63149409507649
 30
0.0
 40
0.0625
 41
1.05
 71
     1
 72
     1
  1
22P30056H01\PW22 CLAMPRING NUT
 73
     1
 44
1.0
1001
ACAD
1000
MTEXTBEGIN
1070
    73
1070
     1
1070
    44
1040
1.0
1070
    74
1070
     0
1000
MTEXTEND
  0
LEADER
  5
219
330
2
100
AcDbEntity
  8
0
 62
     1
100
AcDbLeader
  3
Standard
 73
     0
 40
0.3333333333333333
 41
2.363095238095238
 76
     3
 10
6.814066273221817
 20
1.87921400790683
 30
0.0
 10
6.853573733249177
 20
1.535329405890664
 30
0.0
 10
6.979980527837432
 20
1.535329405890664
 30
0.0
340
21A
213
0.0
223
-0.03125
233
0.0
1001
ACAD
1000
DSTYLE
1002
{
1070
   147
1040
0.09
1070
    77
1070
     0
1002
}
  0
MTEXT
  5
21A
102
{ACAD_REACTORS
330
219
102
}
330
2
100
AcDbEntity
  8
0
 62
     1
100
AcDbMText
 10
7.024980527837432
 20
1.566579405890664
 30
0.0
 40
0.0625
 41
1.25
 71
     1
 72
     1
  1
22P10054H01\PW22 BRACKET ASSEMBLY
 73
     1
 44
1.0
1001
ACAD
1000
MTEXTBEGIN
1070
    73
1070
     1
1070
    44
1040
1.0
1070
    74
1070
     0
1000
MTEXTEND
  0
MTEXT
  5
21B
330
2
100
AcDbEntity
  8
0
 62
     1
100
AcDbMText
 10
0.0603194280295831
 20
5.009389613249556
 30
0.0
 40
0.1
 41
2.75
 71
     1
 72
     5
  1
NOTE:\P{\H0.625x;1)  THE W22 1 INCH HOLE ADAPTER CAN BE USED WITH ANY W22 OPERATOR (W22 PUSHBUTTON SHOWN) \P\P2)  TO ENSURE WATER TIGHT IT IS RECOMMENDED THAT AN ENCLOSURE OF AT LEAST 0.050" THICKNESS IS USED}
  7
USER2
 73
     1
 44
1.0
1001
ACAD
1000
MTEXTBEGIN
1070
    73
1070
     1
1070
    44
1040
1.0
1070
    74
1070
     0
1000
MTEXTEND
  0
LINE
  5
21C
330
2
100
AcDbEntity
  8
AM_VIS
100
AcDbLine
 10
1.688559562468374
 20
2.879927804969551
 30
0.0
 11
1.694522892507542
 21
2.887214164556946
 31
0.0
  0
LINE
  5
21D
330
2
100
AcDbEntity
  8
AM_VIS
100
AcDbLine
 10
1.688559562468375
 20
2.094500210844115
 30
0.0
 11
1.694522892507542
 21
2.087213851256719
 31
0.0
  0
LINE
  5
21E
330
2
100
AcDbEntity
  8
AM_VIS
100
AcDbLine
 10
1.694521244168029
 20
2.087212500269775
 30
0.0
 11
1.713558065954231
 21
2.063982186708344
 31
0.0
  0
LINE
  5
21F
330
2
100
AcDbEntity
  8
AM_VIS
100
AcDbLine
 10
1.69452124416803
 20
2.887215515543892
 30
0.0
 11
1.713558065954233
 21
2.910445829105323
 31
0.0
  0
LINE
  5
220
330
2
100
AcDbEntity
  8
AM_VIS
100
AcDbLine
 10
1.738559562468375
 20
2.879927804969551
 30
0.0
 11
1.744522892507542
 21
2.887214164556946
 31
0.0
  0
LINE
  5
221
330
2
100
AcDbEntity
  8
AM_VIS
100
AcDbLine
 10
1.738559562468375
 20
2.094500210844115
 30
0.0
 11
1.74452289250754
 21
2.087213851256719
 31
0.0
  0
LINE
  5
222
330
2
100
AcDbEntity
  8
AM_VIS
100
AcDbLine
 10
1.74452124416803
 20
2.087212500269775
 30
0.0
 11
1.763558065954233
 21
2.063982186708344
 31
0.0
  0
LINE
  5
223
330
2
100
AcDbEntity
  8
AM_VIS
100
AcDbLine
 10
1.74452124416803
 20
2.887215515543892
 30
0.0
 11
1.763558065954231
 21
2.910445829105322
 31
0.0
  0
LINE
  5
224
330
2
100
AcDbEntity
  8
AM_VIS
100
AcDbLine
 10
1.788559562468375
 20
2.879927804969551
 30
0.0
 11
1.794522892507542
 21
2.887214164556946
 31
0.0
  0
LINE
  5
225
330
2
100
AcDbEntity
  8
AM_VIS
100
AcDbLine
 10
1.788559562468375
 20
2.094500210844115
 30
0.0
 11
1.79452289250754
 21
2.087213851256719
 31
0.0
  0
LINE
  5
226
330
2
100
AcDbEntity
  8
AM_VIS
100
AcDbLine
 10
1.794521244168029
 20
2.087212500269775
 30
0.0
 11
1.813558065954231
 21
2.063982186708344
 31
0.0
  0
LINE
  5
227
330
2
100
AcDbEntity
  8
AM_VIS
100
AcDbLine
 10
1.79452124416803
 20
2.887215515543892
 30
0.0
 11
1.813558065954231
 21
2.910445829105322
 31
0.0
  0
LINE
  5
228
330
2
100
AcDbEntity
  8
AM_VIS
100
AcDbLine
 10
1.838559562468375
 20
2.879927804969551
 30
0.0
 11
1.844522892507542
 21
2.887214164556946
 31
0.0
  0
LINE
  5
229
330
2
100
AcDbEntity
  8
AM_VIS
100
AcDbLine
 10
1.838559562468375
 20
2.094500210844115
 30
0.0
 11
1.844522892507541
 21
2.087213851256719
 31
0.0
  0
LINE
  5
22A
330
2
100
AcDbEntity
  8
AM_VIS
100
AcDbLine
 10
1.84452124416803
 20
2.087212500269775
 30
0.0
 11
1.863558065954231
 21
2.063982186708344
 31
0.0
  0
LINE
  5
22B
330
2
100
AcDbEntity
  8
AM_VIS
100
AcDbLine
 10
1.84452124416803
 20
2.887215515543892
 30
0.0
 11
1.863558065954229
 21
2.910445829105322
 31
0.0
  0
LINE
  5
22C
330
2
100
AcDbEntity
  8
AM_VIS
100
AcDbLine
 10
1.813561452264908
 20
2.063982186708343
 30
0.0
 11
1.83259827405111
 21
2.087212500269775
 31
0.0
  0
LINE
  5
22D
330
2
100
AcDbEntity
  8
AM_VIS
100
AcDbLine
 10
1.813561452264907
 20
2.910445829105322
 30
0.0
 11
1.83259827405111
 21
2.887215515543892
 31
0.0
  0
LINE
  5
22E
330
2
100
AcDbEntity
  8
AM_VIS
100
AcDbLine
 10
1.888559562468374
 20
2.879927804969551
 30
0.0
 11
1.89452289250754
 21
2.887214164556946
 31
0.0
  0
LINE
  5
22F
330
2
100
AcDbEntity
  8
AM_VIS
100
AcDbLine
 10
1.888559562468374
 20
2.094500210844115
 30
0.0
 11
1.89452289250754
 21
2.087213851256719
 31
0.0
  0
LINE
  5
230
330
2
100
AcDbEntity
  8
AM_VIS
100
AcDbLine
 10
1.894521244168029
 20
2.087212500269775
 30
0.0
 11
1.913558065954232
 21
2.063982186708344
 31
0.0
  0
LINE
  5
231
330
2
100
AcDbEntity
  8
AM_VIS
100
AcDbLine
 10
1.894521244168029
 20
2.887215515543892
 30
0.0
 11
1.913558065954229
 21
2.910445829105322
 31
0.0
  0
LINE
  5
232
330
2
100
AcDbEntity
  8
AM_VIS
100
AcDbLine
 10
1.863561452264907
 20
2.063982186708343
 30
0.0
 11
1.88259827405111
 21
2.087212500269775
 31
0.0
  0
LINE
  5
233
330
2
100
AcDbEntity
  8
AM_VIS
100
AcDbLine
 10
1.863561452264907
 20
2.910445829105322
 30
0.0
 11
1.882598274051109
 21
2.887215515543892
 31
0.0
  0
LINE
  5
234
330
2
100
AcDbEntity
  8
AM_VIS
100
AcDbLine
 10
1.938559562468374
 20
2.879927804969551
 30
0.0
 11
1.94452289250754
 21
2.887214164556946
 31
0.0
  0
LINE
  5
235
330
2
100
AcDbEntity
  8
AM_VIS
100
AcDbLine
 10
1.938559562468374
 20
2.094500210844115
 30
0.0
 11
1.94452289250754
 21
2.087213851256719
 31
0.0
  0
LINE
  5
236
330
2
100
AcDbEntity
  8
AM_VIS
100
AcDbLine
 10
1.944521244168029
 20
2.087212500269775
 30
0.0
 11
1.963558065954232
 21
2.063982186708343
 31
0.0
  0
LINE
  5
237
330
2
100
AcDbEntity
  8
AM_VIS
100
AcDbLine
 10
1.944521244168027
 20
2.887215515543892
 30
0.0
 11
1.963558065954231
 21
2.910445829105323
 31
0.0
  0
LINE
  5
238
330
2
100
AcDbEntity
  8
AM_VIS
100
AcDbLine
 10
1.913561452264905
 20
2.063982186708343
 30
0.0
 11
1.93259827405111
 21
2.087212500269775
 31
0.0
  0
LINE
  5
239
330
2
100
AcDbEntity
  8
AM_VIS
100
AcDbLine
 10
1.913561452264907
 20
2.910445829105322
 30
0.0
 11
1.93259827405111
 21
2.887215515543892
 31
0.0
  0
LINE
  5
23A
330
2
100
AcDbEntity
  8
AM_VIS
100
AcDbLine
 10
1.988559562468375
 20
2.879927804969549
 30
0.0
 11
1.994522892507541
 21
2.887214164556946
 31
0.0
  0
LINE
  5
23B
330
2
100
AcDbEntity
  8
AM_VIS
100
AcDbLine
 10
1.988559562468375
 20
2.094500210844115
 30
0.0
 11
1.99452289250754
 21
2.087213851256719
 31
0.0
  0
LINE
  5
23C
330
2
100
AcDbEntity
  8
AM_VIS
100
AcDbLine
 10
1.99452124416803
 20
2.087212500269775
 30
0.0
 11
2.013558065954232
 21
2.063982186708344
 31
0.0
  0
LINE
  5
23D
330
2
100
AcDbEntity
  8
AM_VIS
100
AcDbLine
 10
1.994521244168029
 20
2.887215515543892
 30
0.0
 11
2.013558065954231
 21
2.910445829105322
 31
0.0
  0
LINE
  5
23E
330
2
100
AcDbEntity
  8
AM_VIS
100
AcDbLine
 10
1.963561452264905
 20
2.063982186708343
 30
0.0
 11
1.98259827405111
 21
2.087212500269775
 31
0.0
  0
LINE
  5
23F
330
2
100
AcDbEntity
  8
AM_VIS
100
AcDbLine
 10
1.963561452264905
 20
2.910445829105323
 30
0.0
 11
1.982598274051109
 21
2.887215515543892
 31
0.0
  0
LINE
  5
240
330
2
100
AcDbEntity
  8
AM_VIS
100
AcDbLine
 10
2.038559562468374
 20
2.879927804969549
 30
0.0
 11
2.044522892507542
 21
2.887214164556946
 31
0.0
  0
LINE
  5
241
330
2
100
AcDbEntity
  8
AM_VIS
100
AcDbLine
 10
2.038559562468374
 20
2.094500210844115
 30
0.0
 11
2.044522892507542
 21
2.087213851256719
 31
0.0
  0
LINE
  5
242
330
2
100
AcDbEntity
  8
AM_VIS
100
AcDbLine
 10
2.044521244168028
 20
2.087212500269775
 30
0.0
 11
2.063558065954229
 21
2.063982186708344
 31
0.0
  0
LINE
  5
243
330
2
100
AcDbEntity
  8
AM_VIS
100
AcDbLine
 10
2.044521244168028
 20
2.887215515543892
 30
0.0
 11
2.063558065954229
 21
2.910445829105322
 31
0.0
  0
ENDSEC
  0
SECTION
  2
OBJECTS
  0
DICTIONARY
  5
8
330
0
100
AcDbDictionary
281
     1
  3
ACAD_BACKGROUND
350
274
  3
ACAD_COLOR
350
44
  3
ACAD_GROUP
350
31
  3
ACAD_LAYOUT
350
15
  3
ACAD_MATERIAL
350
A
  3
ACAD_MLEADERSTYLE
350
26F
  3
ACAD_MLINESTYLE
350
32
  3
ACAD_PLOTSETTINGS
350
33
  3
ACAD_PLOTSTYLENAME
350
7
  3
ACAD_SCALELIST
350
45
  3
ACAD_TABLESTYLE
350
46
  3
ACAD_VISUALSTYLE
350
2A
  3
ACDB_RECOMPOSE_DATA
350
255
  3
AcDbVariableDictionary
350
24A
  3
AcmDictionary
350
244
  3
AMG
350
277
  3
AMGSNAPSETTINGS
350
373
  3
DWGPROPS
350
38D
  3
MAPISURF_MODULE
350
302
  0
DICTIONARY
  5
1D
330
1C
100
AcDbDictionary
280
     1
281
     1
  3
ACAD_LAYERSTATES
360
1E
  0
DICTIONARY
  5
37A
330
5
100
AcDbDictionary
280
     1
281
     1
  3
ADSK_XREC_LAYER_RECONCILED
360
37B
  0
DICTIONARY
  5
37C
330
6E
100
AcDbDictionary
280
     1
281
     1
  3
ADSK_XREC_LAYER_RECONCILED
360
37D
  0
DICTIONARY
  5
37E
330
1BA
100
AcDbDictionary
280
     1
281
     1
  3
ADSK_XREC_LAYER_RECONCILED
360
37F
  0
DICTIONARY
  5
380
330
1B8
100
AcDbDictionary
280
     1
281
     1
  3
ADSK_XREC_LAYER_RECONCILED
360
381
  0
DICTIONARY
  5
382
330
1C0
100
AcDbDictionary
280
     1
281
     1
  3
ADSK_XREC_LAYER_RECONCILED
360
383
  0
DICTIONARY
  5
3
330
2
100
AcDbDictionary
280
     1
281
     1
  3
ACAD_INDEX
360
384
  0
DICTIONARY
  5
212
330
211
100
AcDbDictionary
280
     1
281
     1
  3
ACAD_DIMASSOC
360
213
  0
DICTIONARY
  5
274
102
{ACAD_REACTORS
330
8
102
}
330
8
100
AcDbDictionary
281
     1
  0
DICTIONARY
  5
44
102
{ACAD_REACTORS
330
8
102
}
330
8
100
AcDbDictionary
281
     1
  0
DICTIONARY
  5
31
102
{ACAD_REACTORS
330
8
102
}
330
8
100
AcDbDictionary
281
     1
  0
DICTIONARY
  5
15
102
{ACAD_REACTORS
330
8
102
}
330
8
100
AcDbDictionary
281
     1
  3
Layout1
350
19
  3
Model
350
14
  0
DICTIONARY
  5
A
102
{ACAD_REACTORS
330
8
102
}
330
8
100
AcDbDictionary
281
     1
  3
ByBlock
350
3C
  3
ByLayer
350
34
  3
Global
350
9
  0
DICTIONARY
  5
26F
102
{ACAD_REACTORS
330
8
102
}
330
8
100
AcDbDictionary
281
     1
  3
Standard
350
270
  0
DICTIONARY
  5
32
102
{ACAD_REACTORS
330
8
102
}
330
8
100
AcDbDictionary
281
     1
  3
Standard
350
48
  0
DICTIONARY
  5
33
102
{ACAD_REACTORS
330
8
102
}
330
8
100
AcDbDictionary
281
     1
  0
ACDBDICTIONARYWDFLT
  5
7
102
{ACAD_REACTORS
330
8
102
}
330
8
100
AcDbDictionary
281
     1
  3
Normal
350
6
100
AcDbDictionaryWithDefault
340
6
  0
DICTIONARY
  5
45
102
{ACAD_REACTORS
330
8
102
}
330
8
100
AcDbDictionary
281
     1
  3
A0
350
4C
  3
A1
350
4D
  3
A2
350
4E
  3
A3
350
4F
  3
A4
350
50
  3
A5
350
51
  3
A6
350
52
  3
A7
350
53
  3
A8
350
54
  3
A9
350
55
  3
B0
350
56
  3
B1
350
57
  3
B2
350
58
  3
B3
350
59
  3
B4
350
5A
  3
B5
350
5B
  3
B6
350
5C
  3
B7
350
5D
  3
B8
350
5E
  3
B9
350
5F
  3
C0
350
60
  3
C1
350
61
  3
C2
350
62
  3
C3
350
63
  3
C4
350
64
  3
C5
350
65
  3
C6
350
66
  3
C7
350
67
  3
C8
350
68
  3
C9
350
69
  3
D0
350
6A
  3
D1
350
6B
  3
D2
350
6C
  0
DICTIONARY
  5
46
102
{ACAD_REACTORS
330
8
102
}
330
8
100
AcDbDictionary
281
     1
  3
Standard
350
49
  0
DICTIONARY
  5
2A
102
{ACAD_REACTORS
330
8
102
}
330
8
100
AcDbDictionary
281
     1
  3
*A2
350
272
  3
*A5
350
38B
  3
2dWireframe
350
266
  3
3D Hidden
350
267
  3
3dWireframe
350
4B
  3
Basic
350
265
  3
Brighten
350
26A
  3
ColorChange
350
26E
  3
Conceptual
350
268
  3
Dim
350
269
  3
Facepattern
350
26D
  3
Flat
350
261
  3
FlatWithEdges
350
262
  3
Gouraud
350
263
  3
GouraudWithEdges
350
264
  3
Linepattern
350
26C
  3
Realistic
350
4A
  3
Thicken
350
26B
  0
XRECORD
  5
255
102
{ACAD_REACTORS
330
8
102
}
330
8
100
AcDbXrecord
280
     1
 90
        1
330
49
  0
DICTIONARY
  5
24A
102
{ACAD_REACTORS
330
8
102
}
330
8
100
AcDbDictionary
281
     1
  3
CANNOSCALE
350
24E
  3
CMLEADERSTYLE
350
24C
  3
CTABLESTYLE
350
24B
  3
DIMASSOC
350
252
  3
HIDETEXT
350
251
  3
INDEXCTL
350
250
  3
MSLTSCALE
350
24D
  3
SORTENTS
350
24F
  0
DICTIONARY
  5
244
102
{ACAD_REACTORS
330
8
102
}
330
8
100
AcDbDictionary
281
     1
  3
AcmStdDictionary
350
345
  0
DICTIONARY
  5
277
102
{ACAD_REACTORS
330
8
102
}
330
8
100
AcDbDictionary
281
     1
  3
AcMgSettings
350
278
  0
DICTIONARY
  5
373
102
{ACAD_REACTORS
330
8
102
}
330
8
100
AcDbDictionary
281
     1
  3
DIMENSION
350
378
  3
FEA
350
377
  3
HATCH (1)
350
374
  3
HATCH (2)
350
375
  3
SIMPLE WELD
350
379
  3
SYMBOLS
350
376
  0
XRECORD
  5
38D
102
{ACAD_REACTORS
330
8
102
}
330
8
100
AcDbXrecord
280
     1
  1
DWGPROPS COOKIE
  2

  3

  4

  6

  7

  8
pdamesimo
  9

300
AmdtFileType=84
301
=
302
=
303
=
304
=
305
=
306
=
307
=
308
=
309
=
 40
0.435976712962963
 41
2452510.507111354
 42
2454839.748727674
  1

 90
        1
  0
DICTIONARY
  5
1E
102
{ACAD_REACTORS
330
1D
102
}
330
1D
100
AcDbDictionary
281
     1
  0
XRECORD
  5
37B
102
{ACAD_REACTORS
330
37A
102
}
330
37A
100
AcDbXrecord
280
     1
290
     1
  0
XRECORD
  5
37D
102
{ACAD_REACTORS
330
37C
102
}
330
37C
100
AcDbXrecord
280
     1
290
     1
  0
XRECORD
  5
37F
102
{ACAD_REACTORS
330
37E
102
}
330
37E
100
AcDbXrecord
280
     1
290
     1
  0
XRECORD
  5
381
102
{ACAD_REACTORS
330
380
102
}
330
380
100
AcDbXrecord
280
     1
290
     1
  0
XRECORD
  5
383
102
{ACAD_REACTORS
330
382
102
}
330
382
100
AcDbXrecord
280
     1
290
     1
  0
DICTIONARY
  5
384
102
{ACAD_REACTORS
330
3
102
}
330
3
100
AcDbDictionary
281
     1
  3
*A1
350
385
  0
DIMASSOC
  5
213
102
{ACAD_REACTORS
330
212
102
}
330
212
100
AcDbDimAssoc
330
211
 90
        1
 70
     0
 71
     0
  1
AcDbOsnapPointRef
 72
    10
331
206
 73
     2
 91
        0
 40
0.0864326346313225
 10
8.117533584290757
 20
8.013229962980853
 30
0.0
 75
     0
  0
LAYOUT
  5
19
102
{ACAD_XDICTIONARY
360
1A
102
}
102
{ACAD_REACTORS
330
15
102
}
330
15
100
AcDbPlotSettings
  1

  2
\\NTSERVER_40\HP DesignJet 750C+ (D/A1) by HP
  4
User1287
  6

 40
4.995333194732666
 41
16.93332099914551
 42
4.995330810546875
 43
16.93331909179687
 44
431.71533203125
 45
279.2306518554688
 46
0.0
 47
0.0
 48
0.0
 49
0.0
140
0.0
141
0.0
142
1.0
143
1.0
 70
   688
 72
     0
 73
     0
 74
     5
  7

 75
    16
147
1.0
148
0.0
149
0.0
100
AcDbLayout
  1
Layout1
 70
     1
 71
     1
 10
-0.1966666612099475
 20
-0.6666661810687208
 11
16.7999999541936
 21
10.32666656914658
 12
0.0
 22
0.0
 32
0.0
 14
-0.0886999444988327
 24
-0.5584115592446885
 34
-0.4600000000000001
 15
16.55288843287491
 25
10.08317681812906
 35
0.0
146
0.0
 13
0.0
 23
0.0
 33
0.0
 16
1.0
 26
0.0
 36
0.0
 17
0.0
 27
1.0
 37
0.0
 76
     0
330
16
  0
LAYOUT
  5
14
102
{ACAD_XDICTIONARY
360
38E
102
}
102
{ACAD_REACTORS
330
15
102
}
330
15
100
AcDbPlotSettings
  1

  2
Canon BJC-5100
  4

  6

 40
0.0
 41
0.0
 42
0.0
 43
0.0
 44
0.0
 45
0.0
 46
0.0
 47
0.0
 48
0.0
 49
0.0
140
0.0
141
0.0
142
1.0
143
1.0
 70
  1712
 72
     0
 73
     0
 74
     0
  7

 75
     0
147
1.0
148
0.0
149
0.0
100
AcDbLayout
  1
Model
 70
     1
 71
     0
 10
0.0
 20
0.0
 11
12.0
 21
9.0
 12
0.0
 22
0.0
 32
0.0
 14
0.0
 24
0.0
 34
0.0
 15
0.0
 25
0.0
 35
0.0
146
0.0
 13
0.0
 23
0.0
 33
0.0
 16
1.0
 26
0.0
 36
0.0
 17
0.0
 27
1.0
 37
0.0
 76
     0
330
2
331
28
  0
MATERIAL
  5
3C
102
{ACAD_XDICTIONARY
360
3D
102
}
102
{ACAD_REACTORS
330
A
102
}
330
A
100
AcDbMaterial
  1
ByBlock
 72
     0
 43
0.0208333333333333
 43
0.0
 43
0.0
 43
0.0
 43
0.0
 43
0.0208333333333333
 43
0.0
 43
0.0
 43
0.0
 43
0.0
 43
1.0
 43
0.0
 43
0.0
 43
0.0
 43
0.0
 43
1.0
 77
     0
 47
0.0208333333333333
 47
0.0
 47
0.0
 47
0.0
 47
0.0
 47
0.0208333333333333
 47
0.0
 47
0.0
 47
0.0
 47
0.0
 47
1.0
 47
0.0
 47
0.0
 47
0.0
 47
0.0
 47
1.0
171
     0
 49
0.0208333333333333
 49
0.0
 49
0.0
 49
0.0
 49
0.0
 49
0.0208333333333333
 49
0.0
 49
0.0
 49
0.0
 49
0.0
 49
1.0
 49
0.0
 49
0.0
 49
0.0
 49
0.0
 49
1.0
175
     0
142
0.0208333333333333
142
0.0
142
0.0
142
0.0
142
0.0
142
0.0208333333333333
142
0.0
142
0.0
142
0.0
142
0.0
142
1.0
142
0.0
142
0.0
142
0.0
142
0.0
142
1.0
179
     0
144
0.0208333333333333
144
0.0
144
0.0
144
0.0
144
0.0
144
0.0208333333333333
144
0.0
144
0.0
144
0.0
144
0.0
144
1.0
144
0.0
144
0.0
144
0.0
144
0.0
144
1.0
147
0.0208333333333333
147
0.0
147
0.0
147
0.0
147
0.0
147
0.0208333333333333
147
0.0
147
0.0
147
0.0
147
0.0
147
1.0
147
0.0
147
0.0
147
0.0
147
0.0
147
1.0
  0
MATERIAL
  5
34
102
{ACAD_XDICTIONARY
360
35
102
}
102
{ACAD_REACTORS
330
A
102
}
330
A
100
AcDbMaterial
  1
ByLayer
 72
     0
 43
0.0208333333333333
 43
0.0
 43
0.0
 43
0.0
 43
0.0
 43
0.0208333333333333
 43
0.0
 43
0.0
 43
0.0
 43
0.0
 43
1.0
 43
0.0
 43
0.0
 43
0.0
 43
0.0
 43
1.0
 77
     0
 47
0.0208333333333333
 47
0.0
 47
0.0
 47
0.0
 47
0.0
 47
0.0208333333333333
 47
0.0
 47
0.0
 47
0.0
 47
0.0
 47
1.0
 47
0.0
 47
0.0
 47
0.0
 47
0.0
 47
1.0
171
     0
 49
0.0208333333333333
 49
0.0
 49
0.0
 49
0.0
 49
0.0
 49
0.0208333333333333
 49
0.0
 49
0.0
 49
0.0
 49
0.0
 49
1.0
 49
0.0
 49
0.0
 49
0.0
 49
0.0
 49
1.0
175
     0
142
0.0208333333333333
142
0.0
142
0.0
142
0.0
142
0.0
142
0.0208333333333333
142
0.0
142
0.0
142
0.0
142
0.0
142
1.0
142
0.0
142
0.0
142
0.0
142
0.0
142
1.0
179
     0
144
0.0208333333333333
144
0.0
144
0.0
144
0.0
144
0.0
144
0.0208333333333333
144
0.0
144
0.0
144
0.0
144
0.0
144
1.0
144
0.0
144
0.0
144
0.0
144
0.0
144
1.0
147
0.0208333333333333
147
0.0
147
0.0
147
0.0
147
0.0
147
0.0208333333333333
147
0.0
147
0.0
147
0.0
147
0.0
147
1.0
147
0.0
147
0.0
147
0.0
147
0.0
147
1.0
  0
MATERIAL
  5
9
102
{ACAD_XDICTIONARY
360
B
102
}
102
{ACAD_REACTORS
330
A
102
}
330
A
100
AcDbMaterial
  1
Global
 72
     0
 43
0.0208333333333333
 43
0.0
 43
0.0
 43
0.0
 43
0.0
 43
0.0208333333333333
 43
0.0
 43
0.0
 43
0.0
 43
0.0
 43
1.0
 43
0.0
 43
0.0
 43
0.0
 43
0.0
 43
1.0
 77
     0
 47
0.0208333333333333
 47
0.0
 47
0.0
 47
0.0
 47
0.0
 47
0.0208333333333333
 47
0.0
 47
0.0
 47
0.0
 47
0.0
 47
1.0
 47
0.0
 47
0.0
 47
0.0
 47
0.0
 47
1.0
171
     0
 49
0.0208333333333333
 49
0.0
 49
0.0
 49
0.0
 49
0.0
 49
0.0208333333333333
 49
0.0
 49
0.0
 49
0.0
 49
0.0
 49
1.0
 49
0.0
 49
0.0
 49
0.0
 49
0.0
 49
1.0
175
     0
142
0.0208333333333333
142
0.0
142
0.0
142
0.0
142
0.0
142
0.0208333333333333
142
0.0
142
0.0
142
0.0
142
0.0
142
1.0
142
0.0
142
0.0
142
0.0
142
0.0
142
1.0
179
     0
144
0.0208333333333333
144
0.0
144
0.0
144
0.0
144
0.0
144
0.0208333333333333
144
0.0
144
0.0
144
0.0
144
0.0
144
1.0
144
0.0
144
0.0
144
0.0
144
0.0
144
1.0
147
0.0208333333333333
147
0.0
147
0.0
147
0.0
147
0.0
147
0.0208333333333333
147
0.0
147
0.0
147
0.0
147
0.0
147
1.0
147
0.0
147
0.0
147
0.0
147
0.0
147
1.0
  0
MLEADERSTYLE
  5
270
102
{ACAD_REACTORS
330
26F
102
}
330
26F
100
AcDbMLeaderStyle
170
     2
171
     1
172
     0
 90
        2
 40
0.0
 41
0.0
173
     1
 91
-1056964608
340
23
 92
       -2
290
     1
 42
0.09
291
     1
 43
0.36
  3
Standard
 44
0.18
300

342
20
174
     1
178
     6
175
     1
176
     0
 93
-1056964608
 45
0.18
292
     0
297
     0
 46
0.18
 94
-1056964608
 47
1.0
 49
1.0
140
1.0
293
     1
141
0.0
294
     1
177
     0
142
1.0
295
     0
296
     0
143
0.125
1001
ACAD_MLEADERVER
1070
     2
  0
MLINESTYLE
  5
48
102
{ACAD_REACTORS
330
32
102
}
330
32
100
AcDbMlineStyle
  2
STANDARD
 70
     0
  3

 62
   256
 51
90.0
 52
90.0
 71
     2
 49
0.5
 62
   256
  6
BYLAYER
 49
-0.5
 62
   256
  6
BYLAYER
  0
ACDBPLACEHOLDER
  5
6
102
{ACAD_REACTORS
330
7
102
}
330
7
  0
SCALE
  5
4C
102
{ACAD_REACTORS
330
45
102
}
330
45
100
AcDbScale
 70
     0
300
1:1
140
1.0
141
1.0
290
     1
  0
SCALE
  5
4D
102
{ACAD_REACTORS
330
45
102
}
330
45
100
AcDbScale
 70
     0
300
1:2
140
1.0
141
2.0
290
     0
  0
SCALE
  5
4E
102
{ACAD_REACTORS
330
45
102
}
330
45
100
AcDbScale
 70
     0
300
1:4
140
1.0
141
4.0
290
     0
  0
SCALE
  5
4F
102
{ACAD_REACTORS
330
45
102
}
330
45
100
AcDbScale
 70
     0
300
1:5
140
1.0
141
5.0
290
     0
  0
SCALE
  5
50
102
{ACAD_REACTORS
330
45
102
}
330
45
100
AcDbScale
 70
     0
300
1:8
140
1.0
141
8.0
290
     0
  0
SCALE
  5
51
102
{ACAD_REACTORS
330
45
102
}
330
45
100
AcDbScale
 70
     0
300
1:10
140
1.0
141
10.0
290
     0
  0
SCALE
  5
52
102
{ACAD_REACTORS
330
45
102
}
330
45
100
AcDbScale
 70
     0
300
1:16
140
1.0
141
16.0
290
     0
  0
SCALE
  5
53
102
{ACAD_REACTORS
330
45
102
}
330
45
100
AcDbScale
 70
     0
300
1:20
140
1.0
141
20.0
290
     0
  0
SCALE
  5
54
102
{ACAD_REACTORS
330
45
102
}
330
45
100
AcDbScale
 70
     0
300
1:30
140
1.0
141
30.0
290
     0
  0
SCALE
  5
55
102
{ACAD_REACTORS
330
45
102
}
330
45
100
AcDbScale
 70
     0
300
1:40
140
1.0
141
40.0
290
     0
  0
SCALE
  5
56
102
{ACAD_REACTORS
330
45
102
}
330
45
100
AcDbScale
 70
     0
300
1:50
140
1.0
141
50.0
290
     0
  0
SCALE
  5
57
102
{ACAD_REACTORS
330
45
102
}
330
45
100
AcDbScale
 70
     0
300
1:100
140
1.0
141
100.0
290
     0
  0
SCALE
  5
58
102
{ACAD_REACTORS
330
45
102
}
330
45
100
AcDbScale
 70
     0
300
2:1
140
2.0
141
1.0
290
     0
  0
SCALE
  5
59
102
{ACAD_REACTORS
330
45
102
}
330
45
100
AcDbScale
 70
     0
300
4:1
140
4.0
141
1.0
290
     0
  0
SCALE
  5
5A
102
{ACAD_REACTORS
330
45
102
}
330
45
100
AcDbScale
 70
     0
300
8:1
140
8.0
141
1.0
290
     0
  0
SCALE
  5
5B
102
{ACAD_REACTORS
330
45
102
}
330
45
100
AcDbScale
 70
     0
300
10:1
140
10.0
141
1.0
290
     0
  0
SCALE
  5
5C
102
{ACAD_REACTORS
330
45
102
}
330
45
100
AcDbScale
 70
     0
300
100:1
140
100.0
141
1.0
290
     0
  0
SCALE
  5
5D
102
{ACAD_REACTORS
330
45
102
}
330
45
100
AcDbScale
 70
     0
300
1/128" = 1'-0"
140
0.0078125
141
12.0
290
     0
  0
SCALE
  5
5E
102
{ACAD_REACTORS
330
45
102
}
330
45
100
AcDbScale
 70
     0
300
1/64" = 1'-0"
140
0.015625
141
12.0
290
     0
  0
SCALE
  5
5F
102
{ACAD_REACTORS
330
45
102
}
330
45
100
AcDbScale
 70
     0
300
1/32" = 1'-0"
140
0.03125
141
12.0
290
     0
  0
SCALE
  5
60
102
{ACAD_REACTORS
330
45
102
}
330
45
100
AcDbScale
 70
     0
300
1/16" = 1'-0"
140
0.0625
141
12.0
290
     0
  0
SCALE
  5
61
102
{ACAD_REACTORS
330
45
102
}
330
45
100
AcDbScale
 70
     0
300
3/32" = 1'-0"
140
0.09375
141
12.0
290
     0
  0
SCALE
  5
62
102
{ACAD_REACTORS
330
45
102
}
330
45
100
AcDbScale
 70
     0
300
1/8" = 1'-0"
140
0.125
141
12.0
290
     0
  0
SCALE
  5
63
102
{ACAD_REACTORS
330
45
102
}
330
45
100
AcDbScale
 70
     0
300
3/16" = 1'-0"
140
0.1875
141
12.0
290
     0
  0
SCALE
  5
64
102
{ACAD_REACTORS
330
45
102
}
330
45
100
AcDbScale
 70
     0
300
1/4" = 1'-0"
140
0.25
141
12.0
290
     0
  0
SCALE
  5
65
102
{ACAD_REACTORS
330
45
102
}
330
45
100
AcDbScale
 70
     0
300
3/8" = 1'-0"
140
0.375
141
12.0
290
     0
  0
SCALE
  5
66
102
{ACAD_REACTORS
330
45
102
}
330
45
100
AcDbScale
 70
     0
300
1/2" = 1'-0"
140
0.5
141
12.0
290
     0
  0
SCALE
  5
67
102
{ACAD_REACTORS
330
45
102
}
330
45
100
AcDbScale
 70
     0
300
3/4" = 1'-0"
140
0.75
141
12.0
290
     0
  0
SCALE
  5
68
102
{ACAD_REACTORS
330
45
102
}
330
45
100
AcDbScale
 70
     0
300
1" = 1'-0"
140
1.0
141
12.0
290
     0
  0
SCALE
  5
69
102
{ACAD_REACTORS
330
45
102
}
330
45
100
AcDbScale
 70
     0
300
1-1/2" = 1'-0"
140
1.5
141
12.0
290
     0
  0
SCALE
  5
6A
102
{ACAD_REACTORS
330
45
102
}
330
45
100
AcDbScale
 70
     0
300
3" = 1'-0"
140
3.0
141
12.0
290
     0
  0
SCALE
  5
6B
102
{ACAD_REACTORS
330
45
102
}
330
45
100
AcDbScale
 70
     0
300
6" = 1'-0"
140
6.0
141
12.0
290
     0
  0
SCALE
  5
6C
102
{ACAD_REACTORS
330
45
102
}
330
45
100
AcDbScale
 70
     0
300
1'-0" = 1'-0"
140
12.0
141
12.0
290
     0
  0
TABLESTYLE
  5
49
102
{ACAD_XDICTIONARY
360
253
102
}
102
{ACAD_REACTORS
330
46
102
}
330
46
100
AcDbTableStyle
  3
Standard
 70
     0
 71
     0
 40
0.06
 41
0.06
280
     0
281
     0
  7
STANDARD
140
0.18
170
     2
 62
     0
 63
     7
283
     0
274
    -2
284
     1
 64
     0
275
    -2
285
     1
 65
     0
276
    -2
286
     1
 66
     0
277
    -2
287
     1
 67
     0
278
    -2
288
     1
 68
     0
279
    -2
289
     1
 69
     0
  7
STANDARD
140
0.25
170
     5
 62
     0
 63
     7
283
     0
274
    -2
284
     1
 64
     0
275
    -2
285
     1
 65
     0
276
    -2
286
     1
 66
     0
277
    -2
287
     1
 67
     0
278
    -2
288
     1
 68
     0
279
    -2
289
     1
 69
     0
  7
STANDARD
140
0.18
170
     5
 62
     0
 63
     7
283
     0
274
    -2
284
     1
 64
     0
275
    -2
285
     1
 65
     0
276
    -2
286
     1
 66
     0
277
    -2
287
     1
 67
     0
278
    -2
288
     1
 68
     0
279
    -2
289
     1
 69
     0
  0
VISUALSTYLE
  5
272
102
{ACAD_REACTORS
330
2A
102
}
330
2A
100
AcDbVisualStyle
  2
*
 70
    10
 71
     1
 72
     2
 73
     2
 90
        0
 40
-0.6
 41
-30.0
 62
     5
 63
     7
 74
     2
 91
        0
 64
   257
 65
   257
 75
     1
175
     1
 42
0.0
 92
        0
 66
   257
 43
1.0
 76
     1
 77
     6
 78
     2
 67
     7
 79
     1
170
     0
171
     0
290
     0
174
     0
 93
        1
 44
0.0
173
     0
291
     0
 45
0.0
1001
ACAD
1000
AcDbSavedByObjectVersion
1070
     0
  0
VISUALSTYLE
  5
38B
102
{ACAD_REACTORS
330
2A
102
}
330
2A
100
AcDbVisualStyle
  2
*
 70
    10
 71
     1
 72
     2
 73
     2
 90
        0
 40
-0.6
 41
-30.0
 62
     5
 63
     7
 74
     2
 91
        0
 64
   257
 65
   257
 75
     1
175
     1
 42
0.0
 92
        0
 66
   257
 43
1.0
 76
     1
 77
     6
 78
     2
 67
     7
 79
     1
170
     0
171
     0
290
     0
174
     0
 93
        1
 44
0.0
173
     0
291
     0
 45
0.0
1001
ACAD
1000
AcDbSavedByObjectVersion
1070
     0
  0
VISUALSTYLE
  5
266
102
{ACAD_REACTORS
330
2A
102
}
330
2A
100
AcDbVisualStyle
  2
2dWireframe
 70
     4
 71
     0
 72
     2
 73
     0
 90
        0
 40
-0.6
 41
-30.0
 62
     5
 63
     7
 74
     1
 91
        4
 64
     7
 65
   257
 75
     1
175
     1
 42
1.0
 92
        0
 66
   257
 43
1.0
 76
     1
 77
     6
 78
     2
 67
     7
 79
     5
170
     0
171
     0
290
     0
174
     0
 93
        1
 44
0.0
173
     0
291
     0
 45
0.0
1001
ACAD
1000
AcDbSavedByObjectVersion
1070
     0
  0
VISUALSTYLE
  5
267
102
{ACAD_REACTORS
330
2A
102
}
330
2A
100
AcDbVisualStyle
  2
3D Hidden
 70
     6
 71
     1
 72
     2
 73
     2
 90
        0
 40
-0.6
 41
-30.0
 62
     5
 63
     7
 74
     2
 91
        2
 64
     7
 65
   257
 75
     2
175
     1
 42
40.0
 92
        0
 66
   257
 43
1.0
 76
     1
 77
     6
 78
     2
 67
     7
 79
     3
170
     0
171
     0
290
     0
174
     0
 93
        1
 44
0.0
173
     0
291
     0
 45
0.0
1001
ACAD
1000
AcDbSavedByObjectVersion
1070
     0
  0
VISUALSTYLE
  5
4B
102
{ACAD_REACTORS
330
2A
102
}
330
2A
100
AcDbVisualStyle
  2
3dWireframe
 70
     5
 71
     0
 72
     2
 73
     0
 90
        0
 40
-0.6
 41
-30.0
 62
     5
 63
     7
 74
     1
 91
        4
 64
     7
 65
   257
 75
     1
175
     1
 42
1.0
 92
        0
 66
   257
 43
1.0
 76
     1
 77
     6
 78
     2
 67
     7
 79
     5
170
     0
171
     0
290
     0
174
     0
 93
        1
 44
0.0
173
     0
291
     0
 45
0.0
1001
ACAD
1000
AcDbSavedByObjectVersion
1070
     0
1000
AcDbSavedByObjectVersion
1070
     0
  0
VISUALSTYLE
  5
265
102
{ACAD_REACTORS
330
2A
102
}
330
2A
100
AcDbVisualStyle
  2
Basic
 70
     7
 71
     1
 72
     0
 73
     1
 90
        0
 40
-0.6
 41
-30.0
 62
     5
 63
     7
 74
     0
 91
        4
 64
     7
 65
   257
 75
     1
175
     1
 42
1.0
 92
        8
 66
     7
 43
1.0
 76
     1
 77
     6
 78
     2
 67
     7
 79
     5
170
     0
171
     0
290
     0
174
     0
 93
        1
 44
0.0
173
     0
291
     1
 45
0.0
1001
ACAD
1000
AcDbSavedByObjectVersion
1070
     0
  0
VISUALSTYLE
  5
26A
102
{ACAD_REACTORS
330
2A
102
}
330
2A
100
AcDbVisualStyle
  2
Brighten
 70
    12
 71
     2
 72
     2
 73
     0
 90
        0
 40
-0.6
 41
-30.0
 62
     5
 63
     7
 74
     1
 91
        4
 64
     7
 65
   257
 75
     1
175
     1
 42
1.0
 92
        8
 66
     7
 43
1.0
 76
     1
 77
     6
 78
     2
 67
     7
 79
     5
170
     0
171
     0
290
     0
174
     0
 93
        1
 44
50.0
173
     0
291
     1
 45
0.0
1001
ACAD
1000
AcDbSavedByObjectVersion
1070
     0
  0
VISUALSTYLE
  5
26E
102
{ACAD_REACTORS
330
2A
102
}
330
2A
100
AcDbVisualStyle
  2
ColorChange
 70
    16
 71
     2
 72
     2
 73
     3
 90
        0
 40
-0.6
 41
-30.0
 62
     5
 63
     8
 74
     1
 91
        4
 64
     7
 65
   257
 75
     1
175
     1
 42
1.0
 92
        8
 66
     8
 43
1.0
 76
     1
 77
     6
 78
     2
 67
     7
 79
     5
170
     0
171
     0
290
     0
174
     0
 93
        1
 44
0.0
173
     0
291
     1
 45
0.0
1001
ACAD
1000
AcDbSavedByObjectVersion
1070
     0
  0
VISUALSTYLE
  5
268
102
{ACAD_REACTORS
330
2A
102
}
330
2A
100
AcDbVisualStyle
  2
Conceptual
 70
     9
 71
     3
 72
     2
 73
     0
 90
        0
 40
-0.6
 41
-30.0
 62
     5
 63
     7
 74
     2
 91
        2
 64
     7
 65
   257
 75
     1
175
     1
 42
40.0
 92
        8
 66
     7
 43
1.0
 76
     1
 77
     6
 78
     2
 67
     7
 79
     3
170
     0
171
     0
290
     0
174
     0
 93
        1
 44
0.0
173
     0
291
     0
 45
0.0
1001
ACAD
1000
AcDbSavedByObjectVersion
1070
     0
  0
VISUALSTYLE
  5
269
102
{ACAD_REACTORS
330
2A
102
}
330
2A
100
AcDbVisualStyle
  2
Dim
 70
    11
 71
     2
 72
     2
 73
     0
 90
        0
 40
-0.6
 41
-30.0
 62
     5
 63
     7
 74
     1
 91
        4
 64
     7
 65
   257
 75
     1
175
     1
 42
1.0
 92
        8
 66
     7
 43
1.0
 76
     1
 77
     6
 78
     2
 67
     7
 79
     5
170
     0
171
     0
290
     0
174
     0
 93
        1
 44
-50.0
173
     0
291
     1
 45
0.0
1001
ACAD
1000
AcDbSavedByObjectVersion
1070
     0
  0
VISUALSTYLE
  5
26D
102
{ACAD_REACTORS
330
2A
102
}
330
2A
100
AcDbVisualStyle
  2
Facepattern
 70
    15
 71
     2
 72
     2
 73
     0
 90
        0
 40
-0.6
 41
-30.0
 62
     5
 63
     7
 74
     1
 91
        4
 64
     7
 65
   257
 75
     1
175
     1
 42
1.0
 92
        8
 66
     7
 43
1.0
 76
     1
 77
     6
 78
     2
 67
     7
 79
     5
170
     0
171
     0
290
     0
174
     0
 93
        1
 44
0.0
173
     0
291
     1
 45
0.0
1001
ACAD
1000
AcDbSavedByObjectVersion
1070
     0
  0
VISUALSTYLE
  5
261
102
{ACAD_REACTORS
330
2A
102
}
330
2A
100
AcDbVisualStyle
  2
Flat
 70
     0
 71
     2
 72
     1
 73
     1
 90
        2
 40
-0.6
 41
30.0
 62
     5
 63
     7
 74
     0
 91
        4
 64
     7
 65
   257
 75
     1
175
     1
 42
1.0
 92
        8
 66
     7
 43
1.0
 76
     1
 77
     6
 78
     2
 67
     7
 79
     5
170
     0
171
     0
290
     0
174
     0
 93
       13
 44
0.0
173
     0
291
     1
 45
0.0
1001
ACAD
1000
AcDbSavedByObjectVersion
1070
     0
  0
VISUALSTYLE
  5
262
102
{ACAD_REACTORS
330
2A
102
}
330
2A
100
AcDbVisualStyle
  2
FlatWithEdges
 70
     1
 71
     2
 72
     1
 73
     1
 90
        2
 40
-0.6
 41
30.0
 62
     5
 63
     7
 74
     1
 91
        4
 64
     7
 65
   257
 75
     1
175
     1
 42
1.0
 92
        0
 66
   257
 43
1.0
 76
     1
 77
     6
 78
     2
 67
     7
 79
     5
170
     0
171
     0
290
     0
174
     0
 93
       13
 44
0.0
173
     0
291
     1
 45
0.0
1001
ACAD
1000
AcDbSavedByObjectVersion
1070
     0
  0
VISUALSTYLE
  5
263
102
{ACAD_REACTORS
330
2A
102
}
330
2A
100
AcDbVisualStyle
  2
Gouraud
 70
     2
 71
     2
 72
     2
 73
     1
 90
        2
 40
-0.6
 41
30.0
 62
     5
 63
     7
 74
     0
 91
        4
 64
     7
 65
   257
 75
     1
175
     1
 42
1.0
 92
        0
 66
     7
 43
1.0
 76
     1
 77
     6
 78
     2
 67
     7
 79
     5
170
     0
171
     0
290
     0
174
     0
 93
       13
 44
0.0
173
     0
291
     1
 45
0.0
1001
ACAD
1000
AcDbSavedByObjectVersion
1070
     0
  0
VISUALSTYLE
  5
264
102
{ACAD_REACTORS
330
2A
102
}
330
2A
100
AcDbVisualStyle
  2
GouraudWithEdges
 70
     3
 71
     2
 72
     2
 73
     1
 90
        2
 40
-0.6
 41
30.0
 62
     5
 63
     7
 74
     1
 91
        4
 64
     7
 65
   257
 75
     1
175
     1
 42
1.0
 92
        0
 66
   257
 43
1.0
 76
     1
 77
     6
 78
     2
 67
     7
 79
     5
170
     0
171
     0
290
     0
174
     0
 93
       13
 44
0.0
173
     0
291
     1
 45
0.0
1001
ACAD
1000
AcDbSavedByObjectVersion
1070
     0
  0
VISUALSTYLE
  5
26C
102
{ACAD_REACTORS
330
2A
102
}
330
2A
100
AcDbVisualStyle
  2
Linepattern
 70
    14
 71
     2
 72
     2
 73
     0
 90
        0
 40
-0.6
 41
-30.0
 62
     5
 63
     7
 74
     1
 91
        4
 64
     7
 65
   257
 75
     7
175
     7
 42
1.0
 92
        8
 66
     7
 43
1.0
 76
     1
 77
     6
 78
     2
 67
     7
 79
     5
170
     0
171
     0
290
     0
174
     0
 93
        1
 44
0.0
173
     0
291
     1
 45
0.0
1001
ACAD
1000
AcDbSavedByObjectVersion
1070
     0
  0
VISUALSTYLE
  5
4A
102
{ACAD_REACTORS
330
2A
102
}
330
2A
100
AcDbVisualStyle
  2
Realistic
 70
     8
 71
     2
 72
     2
 73
     0
 90
        0
 40
-0.6
 41
-30.0
 62
     5
 63
     7
 74
     1
 91
        0
 64
     7
 65
   257
 75
     1
175
     1
 42
1.0
 92
        8
 66
     8
 43
1.0
 76
     1
 77
     6
 78
     2
 67
     7
 79
     5
170
     0
171
     0
290
     0
174
     0
 93
       13
 44
0.0
173
     0
291
     0
 45
0.0
1001
ACAD
1000
AcDbSavedByObjectVersion
1070
     0
1000
AcDbSavedByObjectVersion
1070
     0
  0
VISUALSTYLE
  5
26B
102
{ACAD_REACTORS
330
2A
102
}
330
2A
100
AcDbVisualStyle
  2
Thicken
 70
    13
 71
     2
 72
     2
 73
     0
 90
        0
 40
-0.6
 41
-30.0
 62
     5
 63
     7
 74
     1
 91
        4
 64
     7
 65
   257
 75
     1
175
     1
 42
1.0
 92
       12
 66
     7
 43
1.0
 76
     1
 77
     6
 78
     2
 67
     7
 79
     5
170
     0
171
     0
290
     0
174
     0
 93
        1
 44
0.0
173
     0
291
     1
 45
0.0
1001
ACAD
1000
AcDbSavedByObjectVersion
1070
     0
  0
DICTIONARYVAR
  5
24E
102
{ACAD_REACTORS
330
24A
102
}
330
24A
100
DictionaryVariables
280
     0
  1
1:1
  0
DICTIONARYVAR
  5
24C
102
{ACAD_REACTORS
330
24A
102
}
330
24A
100
DictionaryVariables
280
     0
  1
STANDARD
  0
DICTIONARYVAR
  5
24B
102
{ACAD_REACTORS
330
24A
102
}
330
24A
100
DictionaryVariables
280
     0
  1
STANDARD
  0
DICTIONARYVAR
  5
252
102
{ACAD_REACTORS
330
24A
102
}
330
24A
100
DictionaryVariables
280
     0
  1
2
  0
DICTIONARYVAR
  5
251
102
{ACAD_REACTORS
330
24A
102
}
330
24A
100
DictionaryVariables
280
     0
  1
1
  0
DICTIONARYVAR
  5
250
102
{ACAD_REACTORS
330
24A
102
}
330
24A
100
DictionaryVariables
280
     0
  1
1
  0
DICTIONARYVAR
  5
24D
102
{ACAD_REACTORS
330
24A
102
}
330
24A
100
DictionaryVariables
280
     0
  1
1
  0
DICTIONARYVAR
  5
24F
102
{ACAD_REACTORS
330
24A
102
}
330
24A
100
DictionaryVariables
280
     0
  1
127
  0
DICTIONARY
  5
345
102
{ACAD_REACTORS
330
244
102
}
330
244
100
AcDbDictionary
281
     1
  0
DICTIONARY
  5
278
102
{ACAD_REACTORS
330
277
102
}
330
277
100
AcDbDictionary
281
     1
  3
DWGSETTINGS
350
279
  3
TRANSSETTINGS
350
27D
  0
ACAMGFILTERDAT
  5
378
102
{ACAD_REACTORS
330
373
102
}
330
373
100
AcAmgFilterDat
 70
    15
  1
DIMENSION,AMDT_*_DIM
  2
*
  3
*
  4
*
  5
*
290
     1
  0
ACAMGFILTERDAT
  5
377
102
{ACAD_REACTORS
330
373
102
}
330
373
100
AcAmgFilterDat
 70
    15
  1
*
  2
AM_FEA-AM_*
  3
*
  4
*
  5
*
290
     1
  0
ACAMGFILTERDAT
  5
374
102
{ACAD_REACTORS
330
373
102
}
330
373
100
AcAmgFilterDat
 70
    15
  1
HATCH
  2
*
  3
*
  4
*
  5
*
290
     1
  0
ACAMGFILTERDAT
  5
375
102
{ACAD_REACTORS
330
373
102
}
330
373
100
AcAmgFilterDat
 70
    15
  1
LINE
  2
8,8N,*-8,*-8N,AM_8,AM_8N,*-AM_8,*-AM_8N
  3
*
  4
*
  5
INSERT,STDPART2D
290
     1
  0
ACAMGFILTERDAT
  5
379
102
{ACAD_REACTORS
330
373
102
}
330
373
100
AcAmgFilterDat
 70
    15
  1
ARC
  2
AM_5
  3
*
  4
2
  5
INSERT
290
     0
  0
ACAMGFILTERDAT
  5
376
102
{ACAD_REACTORS
330
373
102
}
330
373
100
AcAmgFilterDat
 70
    15
  1
ACMFCFRAME,ACMDATUMTARGET,ACMDATUMID,ACMWELDSYM,ACMSURFSYM,ACMFEATID,ACMPARTREF,ACMBALLOON,AMDTEDGESYM,AMGSCREWCALCTABLE
  2
*
  3
*
  4
*
  5
*
290
     1
  0
LAYER_INDEX
  5
385
102
{ACAD_REACTORS
330
384
102
}
330
384
100
AcDbIndex
 40
2454839.748727674
100
AcDbLayerIndex
  8
0
360
386
 90
       66
  8
AM_VIS
360
387
 90
      329
  8
CENTER
360
388
 90
        2
  8
L-INSPECTION
360
389
 90
        4
  8
10
360
38A
 90
       31
  0
DICTIONARY
  5
1A
330
19
100
AcDbDictionary
280
     1
281
     1
  3
ACAD_XREC_ROUNDTRIP
360
390
  3
ADSK_XREC_LAYOUTTHUMBNAIL
360
1B
  0
DICTIONARY
  5
38E
330
14
100
AcDbDictionary
280
     1
281
     1
  3
ACAD_XREC_ROUNDTRIP
360
38F
  0
DICTIONARY
  5
3D
330
3C
100
AcDbDictionary
280
     1
281
     1
  3
ACAD_XREC_ROUNDTRIP
360
25C
  3
BUMPTILE
360
3E
  3
DIFFUSETILE
360
3F
  3
OPACITYTILE
360
40
  3
REFLECTIONTILE
360
41
  3
REFRACTIONTILE
360
42
  3
SPECULARTILE
360
43
  0
DICTIONARY
  5
35
330
34
100
AcDbDictionary
280
     1
281
     1
  3
ACAD_XREC_ROUNDTRIP
360
25B
  3
BUMPTILE
360
36
  3
DIFFUSETILE
360
37
  3
OPACITYTILE
360
38
  3
REFLECTIONTILE
360
39
  3
REFRACTIONTILE
360
3A
  3
SPECULARTILE
360
3B
  0
DICTIONARY
  5
B
330
9
100
AcDbDictionary
280
     1
281
     1
  3
ACAD_XREC_ROUNDTRIP
360
257
  3
BUMPTILE
360
C
  3
DIFFUSETILE
360
D
  3
OPACITYTILE
360
E
  3
REFLECTIONTILE
360
F
  3
REFRACTIONTILE
360
10
  3
SPECULARTILE
360
11
  0
DICTIONARY
  5
253
330
49
100
AcDbDictionary
280
     1
281
     1
  3
ACAD_ROUNDTRIP_2008_TABLESTYLE_CELLSTYLEMAP
360
38C
  3
ACAD_XREC_ROUNDTRIP
360
391
  0
IDBUFFER
  5
386
330
0
100
AcDbIdBuffer
330
208
330
209
330
20A
330
20B
330
20C
330
20D
330
20E
330
20F
330
210
330
211
330
214
330
215
330
216
330
217
330
218
330
219
330
21A
330
21B
330
18F
330
194
330
199
330
19E
330
1A3
330
1A8
330
1AD
330
1B2
330
1DE
330
1DF
330
1E0
330
1E1
330
1E2
330
1E3
330
1E4
330
1E5
330
1E6
330
1E7
330
1E8
330
1E9
330
1EA
330
1EB
330
1EC
330
1ED
330
1EE
330
1EF
330
1F0
330
1F1
330
1F2
330
1F3
330
1F4
330
1F5
330
1F6
330
1F7
330
1F8
330
1F9
330
1FA
330
1FB
330
1FC
330
1FD
330
1FF
330
200
330
202
330
203
330
204
330
205
330
206
330
207
  0
IDBUFFER
  5
387
330
0
100
AcDbIdBuffer
330
15E
330
15F
330
160
330
161
330
162
330
163
330
164
330
165
330
166
330
167
330
168
330
169
330
16A
330
16B
330
16C
330
16D
330
16E
330
16F
330
170
330
171
330
172
330
173
330
174
330
175
330
176
330
177
330
178
330
179
330
17A
330
17B
330
17C
330
17D
330
17E
330
17F
330
180
330
181
330
182
330
183
330
184
330
185
330
186
330
187
330
188
330
189
330
18A
330
18B
330
18C
330
18D
330
18E
330
21C
330
21D
330
21E
330
21F
330
220
330
221
330
222
330
223
330
224
330
225
330
226
330
227
330
228
330
229
330
22A
330
22B
330
22C
330
22D
330
22E
330
22F
330
230
330
231
330
232
330
233
330
234
330
235
330
236
330
237
330
238
330
239
330
23A
330
23B
330
23C
330
23D
330
23E
330
23F
330
240
330
241
330
242
330
243
330
6D
330
6F
330
70
330
71
330
72
330
73
330
74
330
75
330
76
330
77
330
78
330
79
330
7A
330
7B
330
7C
330
7D
330
7E
330
7F
330
80
330
81
330
82
330
83
330
84
330
85
330
86
330
87
330
88
330
89
330
8A
330
8B
330
8C
330
8D
330
8E
330
8F
330
90
330
91
330
92
330
93
330
94
330
95
330
96
330
97
330
98
330
99
330
9A
330
9B
330
9C
330
9D
330
9E
330
9F
330
A0
330
A1
330
A2
330
A3
330
A4
330
A5
330
A6
330
A7
330
A8
330
A9
330
AA
330
AB
330
AC
330
AD
330
AE
330
AF
330
B0
330
B1
330
B2
330
B3
330
B4
330
B5
330
B6
330
B7
330
B8
330
B9
330
BA
330
BB
330
BC
330
BD
330
BE
330
BF
330
C0
330
C1
330
C2
330
C3
330
C4
330
C5
330
C6
330
C7
330
C8
330
C9
330
CA
330
CB
330
CC
330
CD
330
CE
330
CF
330
D0
330
D1
330
D2
330
D3
330
D4
330
D5
330
D6
330
D7
330
D8
330
D9
330
DA
330
DB
330
DC
330
DD
330
DE
330
DF
330
E0
330
E1
330
E2
330
E3
330
E4
330
E5
330
E6
330
E7
330
E8
330
E9
330
EA
330
EB
330
EC
330
ED
330
EE
330
EF
330
F0
330
F1
330
F2
330
F3
330
F4
330
F5
330
F6
330
F7
330
F8
330
F9
330
FA
330
FB
330
FC
330
FD
330
FE
330
FF
330
100
330
101
330
102
330
103
330
104
330
105
330
106
330
107
330
108
330
109
330
10A
330
10B
330
10C
330
10D
330
10E
330
10F
330
110
330
111
330
112
330
113
330
114
330
115
330
116
330
117
330
118
330
119
330
11A
330
11B
330
11C
330
11D
330
11E
330
11F
330
120
330
121
330
122
330
123
330
124
330
125
330
126
330
127
330
128
330
129
330
12A
330
12B
330
12C
330
12D
330
12E
330
12F
330
130
330
131
330
132
330
133
330
134
330
135
330
136
330
137
330
138
330
139
330
13A
330
13B
330
13C
330
13D
330
13E
330
13F
330
140
330
141
330
142
330
143
330
144
330
145
330
146
330
147
330
148
330
149
330
14A
330
14B
330
14C
330
14D
330
14E
330
14F
330
150
330
151
330
152
330
153
330
154
330
155
330
156
330
157
330
158
330
159
330
15A
330
15B
330
15C
330
15D
  0
IDBUFFER
  5
388
330
0
100
AcDbIdBuffer
330
1B9
330
201
  0
IDBUFFER
  5
389
330
0
100
AcDbIdBuffer
330
1B7
330
1BC
330
1BD
330
1BE
  0
IDBUFFER
  5
38A
330
0
100
AcDbIdBuffer
330
1D0
330
1D1
330
1D2
330
1D3
330
1D4
330
1D5
330
1D6
330
1D7
330
1D8
330
1D9
330
1DA
330
1DB
330
1DC
330
1DD
330
1FE
330
1BF
330
1C1
330
1C2
330
1C3
330
1C4
330
1C5
330
1C6
330
1C7
330
1C8
330
1C9
330
1CA
330
1CB
330
1CC
330
1CD
330
1CE
330
1CF
  0
XRECORD
  5
390
102
{ACAD_REACTORS
330
1A
102
}
330
1A
100
AcDbXrecord
280
     1
102
SHADEPLOT
 70
     0
102
SHADEPLOTRESLEVEL
 70
     2
102
SHADEPLOTCUSTOMDPI
 70
   300
  0
XRECORD
  5
1B
102
{ACAD_REACTORS
330
1A
102
}
330
1A
100
AcDbXrecord
280
     1
310
28000000B40000007400000001000800000000009051000000000000000000000001000000000000FFFFFF0000000000FFFFFF000000000000000000000000000000000000000000000000000000000000000000330000006600000099000000CC000000FF00000000330000333300006633000099330000CC330000FF3300
310
0000660000336600006666000099660000CC660000FF66000000990000339900006699000099990000CC990000FF99000000CC000033CC000066CC000099CC0000CCCC0000FFCC000000FF000033FF000066FF000099FF0000CCFF0000FFFF000000003300330033006600330099003300CC003300FF003300003333003333
310
33006633330099333300CC333300FF33330000663300336633006666330099663300CC663300FF66330000993300339933006699330099993300CC993300FF99330000CC330033CC330066CC330099CC3300CCCC3300FFCC330000FF330033FF330066FF330099FF3300CCFF3300FFFF330000006600330066006600660099
310
006600CC006600FF00660000336600333366006633660099336600CC336600FF33660000666600336666006666660099666600CC666600FF66660000996600339966006699660099996600CC996600FF99660000CC660033CC660066CC660099CC6600CCCC6600FFCC660000FF660033FF660066FF660099FF6600CCFF6600
310
FFFF660000009900330099006600990099009900CC009900FF00990000339900333399006633990099339900CC339900FF33990000669900336699006666990099669900CC669900FF66990000999900339999006699990099999900CC999900FF99990000CC990033CC990066CC990099CC9900CCCC9900FFCC990000FF99
310
0033FF990066FF990099FF9900CCFF9900FFFF99000000CC003300CC006600CC009900CC00CC00CC00FF00CC000033CC003333CC006633CC009933CC00CC33CC00FF33CC000066CC003366CC006666CC009966CC00CC66CC00FF66CC000099CC003399CC006699CC009999CC00CC99CC00FF99CC0000CCCC0033CCCC0066CC
310
CC0099CCCC00CCCCCC00FFCCCC0000FFCC0033FFCC0066FFCC0099FFCC00CCFFCC00FFFFCC000000FF003300FF006600FF009900FF00CC00FF00FF00FF000033FF003333FF006633FF009933FF00CC33FF00FF33FF000066FF003366FF006666FF009966FF00CC66FF00FF66FF000099FF003399FF006699FF009999FF00CC
310
99FF00FF99FF0000CCFF0033CCFF0066CCFF0099CCFF00CCCCFF00FFCCFF0000FFFF0033FFFF0066FFFF0099FFFF00CCFFFF00FFFFFF00000000000D0D0D001A1A1A00282828003535350043434300505050005D5D5D006B6B6B00787878008686860093939300A1A1A100AEAEAE00BBBBBB00C9C9C900D6D6D600E4E4E400
310
F1F1F100FFFFFF0000000000000000000000000000000000000000000000000000000000000000000000000000000000EFEFE2E2E2E2E2E2E2E2E2E2E2E2E2E2E2E2E2E2E2E2E2E2E2E2E2E2E2E2E2E2E2E2E2E2E2E2E2E2E2E2E2E2E2E2E2E2E2E2E2E2E2E2E2E2E2E2E2E2E2E2E2E2E2E2E2E2E2E2E2E2E2E2E2E2E2E2E2
310
E2E2E2E2E2E2E2E2E2E2E2E2E2E2E2E2E2E2E2E2E2E2E2E2E2E2E2E2E2E2E2E2E2E2E2E2E2E2E2E2E2E2E2E2E2E2E2E2E2E2E2E2E2E2E2E2E2E2E2E2E2E2E2E2E2E2E2E2E2E2E2E2E2E2E2E2E2E2E2E2E2E2E2E2E2E2E2E2E2E2E2E2E2E2E2E2E2E2E2E2EFE2E2E2E2E2E2E2E2E2E2E2E2E2E2E2E2E2E2E2E2E2E2E2E2E2E2
310
E2E2E2E2E2E2E2E2E2E2E2E2E2E2E2E2E2E2E2E2E2E2E2E2E2E2E2E2E2E2E2E2E2E2E2E2E2E2E2E2E2E2E2E2E2E2E2E2E2E2E2E2E2E2E2E2E2E2E2E2E2E2E2E2E2E2E2E2E2E2E2E2E2E2E2E2E2E2E2E2E2E2E2E2E2E2E2E2E2E2E2E2E2E2E2E2E2E2E2E2E2E2E2E2E2E2E2E2E2E2E2E2E2E2E2E2E2E2E2E2E2E2E2E2E2E2E2
310
E2E2E2E2E2E2E2E2E2E2E2E2E2E2E2E2E2E2E2E2E2E2E2E2E2E2EFE2F5BEBEBEF5F5F5F5F5F5F5F5F5F5F5F5F5F5F5F5F5F5F5F5F5F5F5F5F5F5F5F5F5F5F5F5F5F5F5F5F5F5F5F5F5F5F5F5F5F5F5F5F5F5F5F5F5F5F5F5F5F5F5F5F5F5F5F5F5F5F5F5F5F5F5F5F5F5F5F5F5F5F5F5F5F5F5F5F5F5F5F5F5F5F5F5F5F5F5
310
F5F5F5F5F5F5F5F5F5F5F5F5F5F5F5F5F5F5F5F5F5F5F5F5F5F5F5F5F5F5F5F5F5F5F5F5F5F5F5F5F5F5F5F5F5F5F5F5F5F5F5F5F5F5F5F5F5F5F5F5F5F5F5F5F5F5F5F5F5F5F5F5F5F5F5F5F5F5E2EFE2F5BEE2BEBEE2E2E2E2E2E2E2E2E2E2E2E2E2E2E2E2E2E2E2E2E2E2E2E2E2E2E2E2E2E2E2E2E2E2E2E2E2E2E2E2E2
310
E2E2E2E2E2E2E2E2E2E2E2E2E2E2E2E2E2E2E2E2E2E2E2E2E2E2E2E2E2E2E2E2E2E2E2E2E2E2E2E2E2E2E2E2E2E2E2E2E2E2E2E2E2E2E2E2E2E2E2E2E2E2E2E2E2E2E2E2E2E2E2E2E2E2E2E2E2E2E2E2E2E2E2E2E2E2E2E2E2E2E2E2E2E2E2E2E2E2E2E2E2E2E2E2E2E2E2E2E2E2E2E2E2E2E2E2E2E2E2E2E2E2E2E2E2E2E2
310
E2E2F5F5E2EFE2F5BEE2BEF5F5F5F5F5F5F5F5F5F5F5F5F5F5F5F5F5F5F5F5F5F5F5F5F5F5F5F5F5F5F5F5F5F5F5F5F5F5F5F5F5F5F5F5F5F5F5F5F5F5F5F5F5F5F5F5F5F5F5F5F5F5F5F5F5F5F5F5F5F5F5F5F5F5F5F5F5F5F5F5F5F5F5F5F5F5F5F5F5F5F5F5F5F5F5F5F5F5F5F5F5F5F5E20F0F0F0F0FF5F5F5F5F5F5F5
310
F5F5F5F5F5F5E2E2E2E2E2E2E2F5E2E2F5E2E2E2E2E2F5E2BEBEBEBEBEBEBEF5F5E2F5F5BEBEBEBEBEBEBEBEBEBEBEF5F5F5F5F5F5F5E2F5F5E2EFE2F5BEE2BEF5F5F5F5F5F5F5F5F5F5F5F5F5F5F5F5F5F5F5F5F5F5F5F5F5F5F5F5F5F5F5F5F5F5F5F5F5F5F5F5F5F5F5F5F5F5F5F5F5F5F5F5F5F5F5F5F5F5F5F5F5F5F5
310
F5F5F5F5F5F5F5F5F5F5F5F5F5F5F5F5F5F5F5F5F5F5F5F5F5F5F5F5F5F5F5F5F5F5F5F5F5F5F5F5E20F0F0F0F0FE2E2E2E2E2E2E2E2E2E2E2E2E2E2E2E2E2E2E2E2E2E2E2E2E2E2E2E2E2F5E2BEBEBEBEBEF5BEF5F5E2F5F5BEBEBEBEBEBEBEBEBEBEBEF5F5F5F5F5F5F5E2F5F5E2EFE2F5F5E2F5F5F5F5F5F5F5F5F5F5F5
310
F5F5F5F5F5F5F5F5F5F5F5F5F5F5F5F5F5F5F5F5F5F5F5F5F5F5F5F5F5F5F5F5F5F5F5F5F5F5F5F5F5F5F5F5F5F5F5F5F5F5F5F5F5F5F5F5F5F5F5F5F5F5F5F5F5F5F5F5F5F5F5F5F5F5F5F5F5F5F5F5F5F5F5F5F5F5F5F5F5F5F5F5F5E20FF5F50F0FE2E2E2E2E2E2E2E2E2E2E2E2E2E2E2E2E2E2E2E2E2E2E2E2E2E2E2E2
310
E2F5E2E2E2E2E2E2F5F5F5F5E2F5F5F5E2E2E2E2E2E2E2E2E2E2F5F5F5F5F5F5F5E2F5F5E2EFE2F5F5E2F5F5F5F5F5F5F5F5F5F5F5F5F5F5F5F5F5F5F5F5F5F5F5F5F5F5F5F5F5F5F5F5F5F5F5F5F5F5F5F5F5F5F5F5F5F5F5F5F5F5F5F5F5F5F5F5F5F5F5F5F5F5F5F5F5F5F5F5F5F5F5F5F5F5F5F5F5F5F5F5F5F5F5F5F5
310
F5F5F5F5F5F5F5F5F5F5F5F5F5F5F5F5F5F5F5E20F0F0F0F0FF5F5F5F5F5F5F5F5F5F5F5F5F5E2E2E2E2F5E2E2E2F5E2E2E2F5F5F5F5F5E2E2E2E2E2E2F5F5F5F5E2F5F5F5E2E2E2E2E2E2F5E2E2E2F5F5F5F5F5F5F5E2F5F5E2EFE2F5F5E2E2E2E2E2E2E2E2F5F5F5F5F5F5F5F5F5E2E2E2E2E2E2E2E2E2E2E2E2E2E2E2E2
310
F5F5F5F5F5F5F5F5F5E2E2E2E2E2E2E2E2E2E2E2E2E2E2E2E2F5F5F5F5F5F5F5F5E2E2E2E2E2E2E2E2E2E2E2E2E2E2E2E2F5F5F5F5F5F5F5F5F5E2E2E2E2E2E2E2E2E2E2E2E2E2E2E20F0F0F0F0FE2E2E2E2E2E2E2E2E2E2E2E2E2E2E2E2E2E2E2E2E2E2E2E2E2E2E2E2E2E2E2E2E2E2E2E2E2E2E2E2E2E2E2E2E2E2E2E2E2
310
E2E2E2E2E2E2E2E2E2E2E2E2E2F5F5E2EFE2F5F5E2F5F5F5F5F5F5F5F5F5F5F5F5F5F5F5F5F5F5F5F5F5F5F5F5F5F5F5F5F5F5F5F5F5F5F5F5F5F5F5F5F5F5F5F5F5F5F5F5F5F5F5F5F5F5F5F5F5F5F5F5F5F5F5F5F5F5F5F5F5F5F5F5F5F5F5F5F5F5F5F5F5F5F5F5F5F5F5F5F5F5F5F5F5F5F5F5F5F5F5F5F5F5F5F5F5F5
310
F5F5F5F5F5F5F5F5F5F5F5F5F5F5F5F5F5F5F5F5F5F5F5F5F5F5F5F5F5F5F5F5F5F5E2BEBEBEBEF5F5F5F5F5E2F5F5BEBEBEBEBEBEBEBEBEBEBEBEF5F5F5F5F5F5E2F5F5E2EFE2F5F5E2F5F5F5F5F5F5F5F5F5F5F5F5F5F5F5F5F5F5F5F5F5F5F5F5F5F5F5F5F5F5F5F5F5F5F5F5F5F5F5F5F5F5F5F5F5F5F5F5F5F5F5F5F5
310
F5F5F5F5F5F5F5F5F5F5F5F5F5F5F5F5F5F5F5F5F5F5F5F5F5F5F5F5F5F5F5F5F5F5F5F5F5F5F5F5F5F5F5F5F5F5F5F5F5F5F5F5F5F5F5F5F5F5F5F5F5F5F5F5F5F5F5F5F5F5F5F5F5F5F5F5F5F5F5F5F5F5F5F5F5F5F5E2BEBEBEBEF5F5F5F5F5E2F5F5BEBEBEF5F5BEBEF5F5BEBEF5F5F5F5F5F5F5E2F5F5E2EFE2F5F5E2
310
F5F5F5F5F5F5F5F5F5F5F5F5F5F5F5F5F5F5F5F5F5F5F5F5F5F5F5F5F5F5F5F5F5F5F5F5F5F5F5F5F5F5F5F5F5F5F5F5F5F5F5F5F5F5F5F5F5F5F5F5F5F5F5F5F5F5F5F5F5F5F5F5F5F5F5F5F5F5F5F5F5F5F5F5F5F5F5F5F5F5F5F5F5F5F5F5F5F5F5F5F5F5F5F5F5F5F5F5F5F5F5F5F5F5F5F5F5F5F5F5F5F5F5F5F5F5F5
310
F5F5F5F5F5F5F5F5F5F5F5F5F5E2E2E2E2E2E2E2E2E2F5E2F5F5F5E2E2E2E2F5F5F5F5F5F5F5F5F5F5F5F5F5E2F5F5E2EFE2F5F5E2F5F5F5F5F5F5F5F5F5F5F5F5F5F5F5F5F5F5F5F5F5F5F5F5F5F5F5F5F5F5F5F5F5F5F5F5F5F5F5F5F5F5F5F5F5F5F5F5F5F5F5F5F5F5F5F5F5F5F5F5F5F5F5F5F5F5F5F5F5F5F5F5F5F5
310
F5F5F5F5F5F5F5F5F5F5F5F5F5F5F5F5F5F5F5F5F5F5F5F5F5F5F5F5F5F5F5F5F5F5F5F5F5F5F5F5F5F5F5F5F5F5F5F5F5F5F5F5F5F5F5F5F5F5F5F5F5F5F5F5F5F5E2E2E2E2E2E2E2E2E2F5E2F5F5F5E2E2E2E2F5F5F5F5F5F5F5F5F5F5F5F5F5E2F5F5E2EFE2F5F5E2F5F5F5F5F5F5F5F5F5F5F5F5F5F5F5F5F5F5F5F5F5
310
F5F5F5F5F5F5F5F5F5F5F5F5F5F5F5F5F5F5F5F5F5F5F5F5F5F5F5F5F5F5F5F5F5F5F5F5F5F5F5F5F5F5F5F5F5F5F5F5F5F5F5F5F5F5F5F5F5F5F5F5F5F5F5F5F5F5F5F5F5F5F5F5F5F5F5F5F5F5F5F5F5F5F5F5F5F5F5F5F5F5F5F5F5F5F5F5F5F5F5F5F5F5F5F5F5F5F5F5F5F5F5F5F5F5F5F5F5F5F5E2F5F5F5F5F5F5F5
310
F5F5E2F5F5F5F5F5F5F5F5F5F5F5F5F5F5F5F5F5F5F5F5E2F5F5E2EFE2F5F5E2F5F5F5F5F5F5F5F5F5F5F5F5F5F5F5F5F5F5F5F5F5F5F5F5F5F5F5F5F5F5F5F5F5F5F5F5F5F5F5F5F5F5F5F5F5F5F5F5F5F5F5F5F5F5F5F5F5F5F5F5F5F5F5F5F5F5F5F5F5F5F5F5F5F5F5F5F5F5F5F5F5F5F5F5F5F5F5F5F5F5F5F5F5F5F5
310
F5F5F5F5F5F5F5F5F5F5F5F5F5F5F5F5F5F5F5F5F5F5F5F5F5F5F5F5F5F5F5F5F5F5F5F5F5F5F5F5F5F5F5F5F5E2E2E2E2E2E2E2E2E2E2E2E2E2E2E2E2E2E2E2E2E2E2E2E2E2E2E2E2E2E2E2E2F5F5E2EFE2F5F5E2F5F5F5F5F5F5F5F5F5F5F5F5F5F5F5F5F5F5F5F5F5F5F5F5F5F5F5F5F5F5F5F5F5F5F5F5F5F5F5F5F5F5
310
F5F5F5F5F5F5F5F5F5F5F5F5F5F5F5F5F5F5F5F5F5F5F5F5F5F5F5F5F5F5F5F5F5F5F5F5F5F5F5F5F5F5F5F5F5F5F5F5F5F5F5F5F5F5F5F5F5F5F5F5F5F5F5F5F5F5F5F5F5F5F5F5F5F5F5F5F5F5F5F5F5F5F5F5F5F5F5F5F5F5F5F5F5F5F5F5F5F5E2BEBEBEBEBEBEBEBEBEF5F5F5F5F5F5F5F5F5F5F5F5F5F5F5F5F5F5F5
310
F5F5E2F5F5E2EFE2F5F5E2F5F5F5F5F5F5F5F5F5F5F5F5F5F5F5F5F5F5F5F5F5F5F5F5F5F5F5F5F5F5F5F5F5F5F5F5F5F5F5F5F5F5F5F5F5F5F5F5F5F5F5F5F5F5F5F5F5F5F5F5F5F5F5F5F5F5F5F5F5F5F5F5F5F5F5F5F5F5F5F5F5F5F5F5F5F5F5F5F5F5F5F5F5F5F5F5F5F5F5F5F5F5F5F5F5F5F5F5F5F5F5F5F5F5F5F5
310
F5F5F5F5F5F5F5F5F5F5F5F5F5F5F5F5F5F5F5F5F5F5F5F5E2BEBEBEBEBEBEBEBEBEF5F5F5F5F5F5F5F5F5F5F5F5F5F5F5F5F5F5F5F5F5E2F5F5E2EFE2F5F5E2F5F5F5F5F5F5F5F5F5F5F5F5F5F5F5F5F5F5F5F5F5F5F5F5F5F5F5F5F5F5F5F5F5F5F5F5F5F5F5F5F5F5F5F5F5F5F5F5F5F5F5F5F5F5F5F5F5F5F5F5F5F5F5
310
F5F5F5F5F5F5F5F5F5F5F5F5F5F5F5F5F5F5F5F5F5F5F5F5F5F5F5F5F5F5F5F5F5F5F5F5F5F5F5F5F5F5F5F5F5F5F5F5F5F5F5F5F5F5F5F5F5F5F5F5F5F5F5F5F5F5F5F5F5F5F5F5F5F5F5F5F5E2BEBEBEBEBEBEBEBEBEBEBEBEBEBEBEBEBEBEBEBEBEBEBEF5F5F5F5F5F5F5E2F5F5E2EFE2F5F5E2F5F5F5F5F5F5F5F5F5F5
310
F5F5F5F5F5F5F5F5F5F5F5F5F5F5F5F5F5F5F5F5F5F5F5F5F5F5F5F5F5F5F5F5F5F5F5F5F5F5F5F5F5F5F5F5F5F5F5F5F5F5F5F5F5F5F5F5F5F5F5F5F5F5F5F5F5F5F5F5F5F5F5F5F5F5F5F5F5F5F5F5F5F5F5F5F5F5F5F5F5F5F5F5F5F5F5F5F5F5F5F5F5F5F5F5F5F5F5F5F5F5F5F5F5F5F5F5F5F5F5F5F5F5F5F5F5F5F5
310
F5F5F5E2BEBEBEBEBEBEBEBEBEBEBEBEBEBEBEBEBEBEBEBEBEBEBEF5F5F5F5F5F5F5E2F5F5E2EFE2F5F5E2F5F5F5F5F5F5F5F5F5F5F5F5F5F5F5F5F5F5F5F5F5F5F5F5F5F5F5F5F5F5F5F5F5F5F5F5F5F5F5F5F5F5F5F5F5F5F5F5F5F5F5F5F5F5F5F5F5F5F5F5F5F5F5F5F5F5F5F5F5F5F5F5F5F5F5F5F5BEBEBEBEBEBEBE
310
BEF5F5F5F5F5F5F5F5F5F5F5F5F5F5F5F5F5F5F5F5F5F5F5F5F5F5F5F5F5F5F5F5F5F5F5F5F5F5F5F5F5F5F5F5F5F5F5F5F5F5F5F5F5F5F5E2BEBEBEBEBEBEBEBEBEBEBEBEBEBEBEBEBEBEBEBEBEBEBEF5F5F5F5F5F5F5E2F5F5E2EFE2F5F5E2F5F5F5F5F5F5F5F5F5F5F5F5F5F5F5F5F5F5F5F5F5F5F5F5F5F5F5F5F5F5F5
310
F5F5F5F5F5F5F5F5F5F5F5F5F5F5F5F5F5F5F5F5F5F5F5F5F5F5F5F5F5F5F5F5F5F5F5F5F5F5F5F5F5F5F5F5F5F5F5F5F5F5F5F5F5BEF5F5F5F5F5F5F5F5F5F5F5F5F5F5F5F5F5F5F5F5F5F5F5F5F5F5F5F5F5F5F5F5F5F5F5F5F5F5F5F5F5F5F5F5F5F5F5F5F5F5F5F5F5F5F5E2BEBEBEBEBEBEBEBEBEBEF5BEF5BEBEBEBE
310
BEF5BEBEBEBEBEBEF5F5F5F5F5E2F5F5E2EFE2F5F5E2F5F5F5F5F5F5F5F5F5F5F5F5F5F5F5F5F5F5F5F5F5F5F5F5F5F5F5F5F5F5F5F5F5F5F5F5F5F5F5F5F5F5F5F5F5F5F5F5F5F5F5F5F5F5F5F5F5F5F5F5F5F5F5F5F5F5F5BEBEBEBEBEBEBEBEBEBEBEBEF5F5F5F5F5BEF5F5F5F5F5F5F5F5F5F5F5F5F5F5F5F5F5F5F5F5
310
F5F5F5F5F5F5F5F5F5F5F5F5F5F5F5F5F5F5F5F5F5F5F5F5F5F5F5F5F5F5F5F5F5F5F5E2BEBEBEBEBEBEBEBEBEBEF5BEF5BEBEBEBEBEF5BEBEBEBEBEBEF5F5F5F5F5E2F5F5E2EFE2F5F5E2F5F5F5F5F5F5F5F5F5F5F5F5F5F5F5F5F5F5F5F5F5F5F5F5F5F5F5F5F5F5F5F5F5F5F5F5F5F5F5F5F5F5F5F5F5F5F5F5F5F5F5F5
310
F5F5F5F5F5F5F5F5F5F5F5F5F5F5F5BEBEBEBEBEBEBEBEBEBEBEBEF5F5F5F5F5BEF5F5F5F5F5F5F5F5F5F5F5F5F5F5F5F5F5F5F5F5F5F5F5F5F5F5F5F5F5F5F5F5F5F5F5F5F5F5F5F5F5F5F5F5F5F5F5F5F5F5F5F5F5F5F5E2E2E2E2E2F5F5F5F5F5F5F5F5F5F5F5F5F5F5F5F5F5F5F5F5F5F5F5F5F5F5E2F5F5E2EFE2F5F5
310
E2F5F5F5F5F5F5F5F5F5F5F5F5F5F5F5F5F5F5F5F5F5F5F5F5F5F5F5F5F5F5F5F5F5F5F5F5F5F5F5F5F5F5F5F5F5F5F5F5F5F5F5F5F5F5F5F5F5F5F5F5F5F5F5F5F5F5F5BEBEBEBEBEBEBEF5BEBEF5F5BEBEBEF5F5BEF5F5F5F5F5F5F5F5F5F5F5F5F5F5F5F5F5F5F5F5F5F5F5F5F5F5F5F5F5F5F5F5F5F5F5F5F5F5F5F5F5
310
F5F5F5F5F5F5F5F5F5F5F5F5F5F5E2E2E2E2E2F5F5F5F5F5F5F5F5F5F5F5F5F5F5F5F5F5F5F5F5F5F5F5F5F5F5E2F5F5E2EFE2F5F5E2F5F5F5F5F5F5F5F5F5F5F5F5F5F5F5F5F5F5F5F5F5F5F5F5F5F5F5F5F5F5F5F5F5F5F5F5F5F5F5F5F5F5F5F5F5F5F5F5F5F5F5F5F5F5F5F5F5F5F5F5F5F5F5F5F5F5F5BEBEBEBEBEBE
310
BEBEBEBEBEBEBEBEBEF5F5BEF5F5F5F5F5F5F5F5F5F5F5F5F5F5F5F5F5F5F5F5F5F5F5F5F5F5F5F5F5F5F5F5F5F5F5F5F5F5F5F5F5F5F5F5F5F5F5F5F5F5F5F5F5F5F5E2E2E2E2E2E2E2E2E2E2E2E2E2E2E2E2E2E2E2E2E2E2E2E2E2E2E2E2E2E2E2E2F5F5E2EFE2F5F5E2F5F5F5F5F5F5F5F5F5F5F5F5F5F5F5F5F5F5F5F5
310
F5F5F5F5F5F5F5F5F5F5F5F5F5F5F5F5F5F5F5F5F5F5F5F5F5F5F5F5F5F5F5F5F5F5F5F5F5F5F5F5F5F5F5F5F5F5F5F5F5F5F5F5F5F5F5F5F5F5F5F5F5F5F5F5BEF5F5F5F5F5F5F5F5F5F5F5F5F5F5F5F5F5F5F5F5F5F5F5F5F5F5F5F5F5F5F5F5F5F5F5F5F5F5F5F5F5F5F5F5F5F5F5F5F5F5F5F5F5F5F5F5F5F5F5F5F5F5
310
F5F5F5F5F5F5F5F5F5F5F5F5F5F5F5F5F5F5F5F5F5F5F5F5E2F5F5E2EFE2F5F5E2F5F5F5F5F5F5F5F5F5F5F5F5F5F5F5F5F5F5F5F5F5F5F5F5F5F5F5F5F5F5F5F5F5F5F5F5F5F5F5F5F5F5F5F5F5F5F5F5F5F5F5F5F5F5F5F5F5F5F5F5F5F5F5F5F5F5F5F5F5F5F5F5F5F5F5F5F5F5F5F5F5F5F5F5BEF5F5F5F5F5F5F5F5F5
310
F5F5F5F5F5F5F5F5F5F5F5F5F5F5F5F5F5F5F5F5F5F5F5F5F5F5F5F5F5F5F5F5F5F5F5F5F5F5F5F5F5F5F5F5F5F5F5F5F5F5F5F5F5F5F5F5F5F5F5F5F5F5F5F5F5F5F5F5F5F5F5F5F5F5F5F5F5E2F5F5E2EFE2F5F5E2F5F5F5F5F5F5F5F5F5F5F5F5F5F5F5F5F5F5F5F5F5F5F5F5F5F5F5F5F5F5F5F5F5F5F5F5F5F5F5F5F5
310
F5F5F5F5F5F5F5F5F5F5F5F5F5F5F5F5F5F5F5F5F5F5F5F5F5F5F5F5F5F5F5F5F5F5F5F5F5F5F5F5F5F5BEBEF5F5F5F5F5F5F5F5F5F5F5F5F5F5F5F5F5F5F5F5F5F5F5F5F5F5F5F5F5F5F5F5F5F5F5F5F5F5F5F5F5F5F5F5F5F5F5F5F5F5F5F5F5F5F5F5F5F5F5F5F5F5F5F5F5F5F5F5F5F5F5F5F5F5F5F5F5F5F5F5F5F5F5
310
F5F5F5E2F5F5E2EFE2F5F5E2F5F5F5F5F5F5F5F5F5F5F5F5F5F5F5F5F5F5F5F5F5F5F5F5F5F5F5F5F5F5F5F5F5F5F5F5F5F5F5F5F5F5F5F5F5F5F5F5F5F5F5F5F5F5F5F5F5F5F5F5F5F5F5F5F5F5F5F5F5F5F5F5F5F5F5F5F5F5F5F5F5F5BEBEBEBEF5F5F5F5F5F5F5F5F5F5F5F5F5F5F5F5F5F5F5F5F5F5F5F5F5F5F5F5F5
310
F5F5F5F5F5F5F5F5F5F5F5F5F5F5F5F5F5F5F5F5F5F5F5F5F5F5F5F5F5F5F5F5F5F5F5F5F5F5F5F5F5F5F5F5F5F5F5F5F5F5F5F5F5F5F5F5E2F5F5E2EFE2F5F5E2F5F5F5F5F5F5F5F5F5F5F5F5F5F5F5F5F5F5F5F5F5F5F5F5F5F5F5F5F5F5F5F5F5F5F5F5F5F5F5F5F5F5F5F5F5F5F5F5F5F5F5F5F5F5F5F5F5F5F5F5F5F5
310
F5F5F5F5F5F5F5F5F5F5F5F5F5F5F5F5F5F5F5F5BEBEBEBEF5F5F5F5F5F5F5F5F5F5F5F5F5F5F5F5F5F5F5F5F5F5F5F5F5F5F5F5F5F5F5F5F5F5F5F5F5F5F5F5F5F5F5F5F5F5F5F5F5F5F5F5F5F5F5F5F5F5F5F5F5F5F5F5F5F5F5F5F5F5F5F5F5F5F5F5F5F5F5F5F5F5F5F5F5E2F5F5E2EFE2F5F5E2F5F5F5F5F5F5F5F5F5
310
F5F5F5F5F5F5F5F5F5F5F5F5F5F5F5F5F5F5F5F5F5F5F5F5F5F5F5F5F5F5F5F5F5F5F5F5F5F5F5F5F5F5F5F5F5F5F5F5F5F5F5F5F5F5F5F5F5F5F5F5F5F5F5F5F5F5F5F5F5F5F5F5F5BEBEBEBEF5F5F5F5F5F5F5F5F5F5F5F5F5F5F5F5F5F5F5F5F5F5F5F5F5F5F5F5F5F5F5F5F5F5F5F5F5F5F5F5F5F5F5F5F5F5F5F5F5F5
310
F5F5F5F5F5F5F5F5F5F5F5F5F5F5F5F5F5F5F5F5F5F5F5F5F5F5F5F5F5F5F5F5F5F5F5E2F5F5E2EFE2F5F5E2F5F5F5F5F5F5F5F5F5F5F5F5F5F5F5F5F5F5F5F5F5F5F5F5F5F5F5F5F5F5F5F5F5F5F5F5F5F5F5F5F5F5F5F5F5F5F5F5F5F5F5F5F5F5F5F5F5F5F5F5F5F5F5F5F5F5F5F5F5F5F5F5F5F5F5F5F5F5F5F5F5F5BE
310
BEBEBEF5F5F5F5F5F5F5F5F5F5F5F5F5F5F5F5F5F5F5F5F5F5F5F5F5F5F5F5F5F5F5F5F5F5F5F5F5F5F5F5F5F5F5F5F5F5F5F5F5F5F5F5F5F5F5F5F5F5F5F5F5F5F5F5F5F5F5F5F5F5F5F5F5F5F5F5F5F5F5F5F5F5F5F5F5E2F5F5E2EFE2F5F5E2F5F5F5F5F5F5F5F5F5F5F5F5F5F5F5F5F5F5F5F5F5F5F5F5F5F5F5F5F5F5
310
F5F5F5F5F5F5F5F5F5F5F5F5F5F5F5F5F5F5F5F5F5F5F5F5F5F5F5F5F5F5F5F5F5F5F5F5F5F5F5F5F5F5F5F5F5F5F5F5F5F5F5F5BEBEBEBEF5F5F5F5F5F5F5F5F5F5F5F5F5F5F5F5F5F5F5F5F5F5F5F5F5F5F5F5F5F5F5F5F5F5F5F5F5F5F5F5F5F5F5F5F5F5F5F5F5F5F5F5F5F5F5F5F5F5F5F5F5F5F5F5F5F5F5F5F5F5F5
310
F5F5F5F5F5F5F5F5F5F5F5F5F5F5E2F5F5E2EFE2F5F5E2F5F5F5F5F5F5F5F5F5F5F5F5F5F5F5F5F5F5F5F5F5F5F5F5F5F5F5F5F5F5F5F5F5F5F5F5F5F5F5F5F5F5F5F5F5F5F5F5F5F5F5F5F5F5F5F5F5F5F5F5F5F5F5F5F5F5F5F5F5F5F5F5F5F5F5F5F5F5F5F5F5F5BEBEBEBEF5F5F5F5F5F5F5F5F5F5F5F5F5F5F5F5F5F5
310
F5F5F5F5F5F5F5F5F5F5F5F5F5F5F5F5F5F5F5F5F5F5F5F5F5F5F5F5F5F5F5F5F5F5F5F5F5F5F5F5F5F5F5F5F5F5F5F5F5F5F5F5F5F5F5F5F5F5F5F5F5F5F5F5F5F5F5E2F5F5E2EFE2F5F5E2F5F5F5F5F5F5F5F5F5F5F5F5F5F5F5F5F5F5F5F5F5F5F5F5F5F5F5F5F5F5F5F5F5F5F5F5F5F5F5F5F5F5F5F5F5F5F5F5F5F5F5
310
F5F5F5F5F5F5F5F5F5F5F5F5F5F5F5F5F5F5F5F5F5F5F5F5F5F5F5F5F5F5F5BEBEBEBEF5F5F5F5F5F5F5F5F5F5F5F5F5F5F5F5F5F5F5F5F5F5F5F5F5F5F5F5F5F5F5F5F5F5F5F5F5F5F5F5F5F5F5F5F5F5F5F5F5F5F5F5F5F5F5F5F5F5F5F5F5F5F5F5F5F5F5F5F5F5F5F5F5F5F5F5F5F5F5F5F5F5F5F5F5E2F5F5E2EFE2F5
310
F5E2F5F5F5F5F5F5F5F5F5F5F5F5F5F5F5F5F5F5F5F5F5F5F5F5F5F5F5F5F5F5F5F5F5F5F5F5F5F5F5F5F5F5F5F5F5F5F5F5F5F5F5F5F5F5F5F5F5F5F5F5F5F5F5F5F5F5F5F5F5F5F5F5F5F5F5F5F5F5F5F5F5F5BEBEBEBEF5F5F5F5F5F5F5F5F5F5F5F5F5F5F5F5F5F5F5F5BEBEBEBEF5F5BEF5BEBEBEBEBEBEF5BEBEBEBE
310
F5BEBEBEBEF5F5F5F5F5F5F5F5F5F5F5F5F5F5F5F5F5F5F5F5F5F5F5F5F5F5F5F5F5F5F5F5F5F5F5F5F5F5F5F5F5E2F5F5E2EFE2F5F5E2F5F5F5F5F5F5F5F5F5F5F5F5F5F5F5F5F5F5F5F5F5F5F5F5F5F5F5F5F5F5F5F5F5F5F5F5F5F5F5F5F5F5F5F5F5F5F5F5F5F5F5BEBEBEBEBEBEF5BEBEBEBEBEBEBEF5F5F5F5F5F5F5
310
F5F5F5F5F5F5F5F5F5F5BEBEBEBEF5F5F5F5F5F5F5F5F5F5F5F5F5F5F5F5F5F5F5F5BEBEBEBEF5BEBEBEBEBEBEBEBEBEF5BEBEBEBEBEBEBEBEBEF5F5F5F5F5F5F5F5F5F5F5F5F5F5F5F5F5F5F5F5F5F5F5F5F5F5F5F5F5F5F5F5F5F5F5F5F5F5F5F5F5E2F5F5E2EFE2F5F5E2F5F5F5F5F5F5F5F5F5F5F5F5F5F5F5F5F5F5F5
310
F5F5F5F5F5F5F5F5F5F5F5F5F5F5F5F5F5F5F5F5F5F5F5F5F5F5F5F5F5F5F5F5BEBEBEBEBEBEBEBEBEBEBEBEBEBEBEBEBEBEBEF5F5F5F5F5F5F5F5F5F5F5F5BEBEBEBEF5F5F5F5F5F5F5F5F5F5F5F5F5F5F5F5F5F5F5F5F5F5F5F5F5F5BEBEF5F5F5F5F5F5F5F5F5F5F5F5F5F5F5F5F5F5F5F5F5F5F5F5F5F5F5F5F5F5F5BE
310
BEBEBEBEBEBEBEBEBEBEBEBEBEF5BEBEBEBEBEBEBEBEBEBEF5E2F5F5E2EFE2F5F5E2F5F5F5F5F5F5F5F5F5F5F5F5F5F5F5F5F5F5F5F5F5F5F5F5F5F5F5F5F5F5F5F5F5F5F5F5F5F5F5F5F5F5F5F5F5F5F5F5F5F5F5BEBEBEBEBEBEBEBEBEBEBEBEBEBEF5F5F5F5BEF5F5F5F5F5F5F5F5F5F5F5F5BEBEBEBEF5F5F5F5F5F5F5
310
F5F5F5F5F5F5F5F5F5BEBEBEBEBEBEBEBEBEBEBEBEF5BEBEBEBEBEF5F5F5F5F5F5F5F5F5F5F5F5F5F5F5F5F5F5F5F5F5F5F5F5F5BEBEBEBEF5BEBEBEBEBEBEBEBEBEF5BEBEBEBEBEBEBEBEBEBEBEE2F5F5E2EFE2F5F5E2F5F5F5F5F5F5F5F5F5F5F5F5F5F5F5F5F5F5F5F5F5F5F5F5F5F5F5F5F5F5F5F5F5F5F5F5F5F5F5F5
310
F5F5F5F5F5F5F5F5F5F5F5F5F5F5F5F5F5F5F5F5F5F5F5F5F5F5F5F5F5BEF5F5F5F5F5F5F5F5F5F5F5F5BEBEBEBEF5F5F5F5F5F5F5F5F5F5F5F5F5F5F5F5BEF5F5F5BEBEBEBEBEBEBEBEBEBEBEBEBEBEF5F5F5F5F5F5F5F5F5F5F5F5F5F5F5F5F5F5F5F5F5F5F5F5F5BEBEBEF5BEBEBEBEBEBEBEBEBEBEF5F5F5F5F5F5F5F5
310
F5F5F5F5E2F5F5E2EFE2F5F5E2F5F5F5F5F5F5F5F5F5F5F5F5F5F5F5F5F5F5F5F5F5F5F5F5F5F5F5F5F5F5F5F5F5F5F5F5F5F5F5F5F5F5F5F5F5F5F5F5F5F5F5F5F5F5F5F5F5F5F5F5F5F5F5F5F5F5F5F5F5BEF5F5F5F5F5F5F5F5F5F5F5F5BEBEBEBEF5F5F5F5F5F5F5F5F5F5F5F5F5F5F5BEF5F5F5F5F5F5F5F5F5F5F5F5
310
F5F5F5F5F5F5F5F5F5F5F5F5F5F5F5F5F5F5F5F5F5F5F5F5F5F5F5BEBEBEBEBEBEBEBEBEBEBEBEBEBEBEBEBEBEF5F5F5F5F5F5F5F5F5F5F5F5E2F5F5E2EFE2F5F5E2F5F5F5F5F5F5F5F5F5F5F5F5F5F5F5F5F5F5F5F5F5F5F5F5F5F5F5F5F5F5F5F5F5F5F5F5F5F5F5F5F5F5F5F5F5F5F5F5F5F5F5F5F5F5F5F5F5F5F5F5F5
310
F5F5F5F5F5F5F5F5BEF5F5F5F5F5F5F5F5F5F5F5F5BEBEBEBEF5F5F5F5F5F5F5F5F5F5F5F5F5F5F5BEF5F5F5F5F5F5F5F5F5F5F5F5F5F5F5F5F5F5F5F5F5F5F5F5F5F5F5F5F5F5F5F5F5F5F5F5F5F5F5BEF5F5F5F5F5F5F5F5F5F5F5F5F5F5F5F5F5F5F5F5F5F5F5F5F5F5F5F5F5E2F5F5E2EFE2F5F5E2F5F5F5F5F5F5F5F5
310
F5F5F5F5F5F5F5F5F5F5F5F5F5F5F5F5F5F5F5F5F5F5F5F5F5F5F5F5F5F5F5F5F5F5F5F5F5F5F5F5F5F5F5F5F5F5F5F5F5F5F5F5F5F5F5F5F5F5F5F5F5F5BEF5F5F5F5F5F5F5F5F5F5F5BEBEBEBEF5F5F5F5F5F5F5F5F5F5F5F5F5F5F5BEF5F5F5F5F5F5F5F5F5F5F5F5F5F5F5F5F5F5F5F5F5F5F5F5F5F5F5F5F5F5F5F5F5
310
F5F5F5F5F5F5BEF5F5F5F5F5F5F5F5F5F5F5F5F5F5F5F5F5F5F5F5F5F5F5F5F5F5F5F5F5E2F5F5E2EFE2F5F5E2F5F5F5F5F5F5F5F5F5F5F5F5F5F5F5F5F5F5F5F5F5F5F5F5F5F5F5F5F5F5F5F5F5F5F5F5F5F5F5F5F5F5F5F5F5F5F5F5F5F5F5F5F5F5F5F5F5F5F5F5F5F5F5F5F5F5F5F5F5F5BEF5F5F5F5F5F5F5F5F5F5F5
310
BEBEBEBEF5F5F5F5F5F5F5F5F5F5F5F5F5F5BEF5F5F5F5F5F5F5F5F5F5F5F5F5F5F5F5F5F5F5F5F5F5F5F5F5F5F5F5F5F5F5F5F5F5F5F5F5F5F5F5BEF5F5F5F5F5F5F5F5F5F5F5F5F5F5F5F5F5F5F5F5F5F5F5F5F5F5F5F5F5E2F5F5E2EFE2F5F5E2F5F5F5F5F5F5F5F5F5F5F5F5F5F5F5F5F5F5F5F5F5F5F5F5F5F5F5F5F5
310
F5F5F5F5F5F5F5F5F5F5F5F5F5F5F5F5F5F5F5F5F5F5F5F5F5F5F5F5F5F5F5F5F5F5F5F5F5F5F5F5F5BEF5F5F5F5F5F5F5F5F5F5F5BEBEBEBEF5F5F5F5F5F5F5F5F5F5F5F5F5F5BEF5F5F5F5F5F5F5F5F5F5F5F5F5F5F5F5F5F5F5F5F5F5F5F5F5F5F5F5F5F5F5F5F5F5F5F5F5F5F5F5BEF5F5F5F5F5F5F5F5F5F5F5F5F5F5
310
F5F5F5F5F5F5F5F5F5F5F5F5F5F5F5E2F5F5E2EFE2F5F5E2F5F5F5F5F5F5F5F5F5F5F5F5F5F5F5F5F5F5F5F5F5F5F5F5F5F5F5F5F5F5F5F5F5F5F5F5F5F5F5F5F5F5F5F5F5F5F5F5F5F5F5F5F5F5F5F5F5F5F5F5F5F5F5F5F5F5F5F5F5F5BEF5F5F5F5F5F5F5F5F5F5F5BEBEBEBEF5F5F5F5F5F5F5F5F5F5F5F5F5BEF5F5F5
310
F5F5F5F5F5F5F5F5F5F5F5F5F5F5F5F5F5F5F5F5F5F5F5F5F5F5F5F5F5F5F5F5F5F5F5F5F5BEBEF5F5F5F5F5F5F5F5F5F5F5F5F5F5F5F5F5F5F5F5F5F5F5F5F5F5F5F5F5E2F5F5E2EFE2F5F5E2F5F5F5F5F5F5F5F5F5F5F5F5F5F5F5F5F5F5F5F5F5F5F5F5F5F5F5F5F5F5F5F5F5F5F5F5F5F5F5F5F5F5F5F5F5F5F5F5F5F5
310
F5F5F5F5F5F5F5F5F5F5F5F5F5F5F5F5F5F5F5F5BEBEF5F5F5F5F5F5F5F5F5F5BEBEBEBEF5F5F5F5F5F5F5F5F5F5F5F5F5BEBEF5F5F5F5F5F5F5F5F5F5F5F5F5F5F5F5F5F5F5F5F5F5F5F5F5F5F5F5F5F5F5F5F5F5F5F5F5F5F5BEBEF5F5F5F5F5F5F5F5F5F5F5F5F5F5F5F5F5F5F5F5F5F5F5F5F5F5F5F5F5E2F5F5E2EFE2
310
F5F5E2F5F5F5F5F5F5F5F5F5F5F5F5F5F5F5F5F5F5F5F5F5F5F5F5F5F5F5F5F5F5F5F5F5F5F5F5F5F5F5F5F5F5F5F5F5F5F5F5F5F5F5F5F5F5F5F5F5F5F5F5F5F5F5F5F5F5F5F5F5F5E2BEF5F5F5F5F5F5F5F5F5F5BEBEBEBEF5F5F5F5F5F5F5F5F5F5F5F5F5BEF5F5F5F5F5F5F5F5F5F5F5F5F5F5F5F5F5E2E2E2E2E2E2F5
310
F5F5F5F5F5F5F5F5F5F5F5F5F5F5F5F5BEE2E2E2E2E2E2E2E2E2F5F5F5F5F5F5F5F5F5F5F5F5F5F5F5F5F5F5F5F5F5E2F5F5E2EFE2F5F5E2F5F5F5F5F5F5F5F5F5F5F5F5F5F5F5F5F5F5F5F5F5F5F5F5E2E2E2E2E2E2E2E2E2E2E2F5F5F5F5F5F5F5F5F5F5F5F5F5F5F5F5F5F5F5F5F5F5F5F5F5F5F5F5F5F5F5F5F5F5F5E2
310
E2F5F5F5F5F5F5F5F5F5F5BEBEBEBEF5F5F5F5F5F5F5F5F5F5F5F5F5E2E2F5F5F5F5F5F5F5F5F5F5F5F5F5F5F5F5E2E2E2E2E2E2F5F5F5F5F5F5F5F5F5F5F5F5F5F5F5F5F5F5E2F5F5E2E2E2E2E2E2F5F5F5F5F5F5F5F5F5F5F5F5F5F5F5F5F5F5F5F5F5E2F5F5E2EFE2F5F5E2F5F5F5F5F5F5F5F5F5F5F5F5F5F5F5F5F5F5
310
F5F5F5F5F5F5E2F5F5F5F5F5F5F5F5F5E2F5F5F5F5F5F5F5F5F5F5F5F5F5F5F5F5F5F5F5F5F5F5F5F5F5F5F5F5F5F5F5F5F5F5F5E2E2F5F5F5F5F5F5F5F5F5F5BEBEBEBEF5F5F5F5F5F5F5F5F5F5F5F5F5E2E2F5F5F5F5F5F5F5F5F5F5F5F5F5F5F5F5E2E2F5F5F5E2F5F5F5F5F5F5F5F5F5F5F5F5F5F5F5F5F5F5E2F5F5E2
310
E2E2F5E2E2F5F5F5F5F5F5F5F5F5F5F5F5F5F5F5F5F5F5F5F5F5E2F5F5E2EFE2F5F5E2F5F5F5F5F5F5F5F5F5F5F5F5F5F5F5F5F5E2E2E2E2E2E2E2E2F5F5F5F5F5F5F5F5F5E2F5F5F5F5F5F5F5F5F5F5F5F5F5F5F5F5F5F5F5F5F5F5F5F5F5F5F5F5F5F5F5F5F5F5F5E2E2F5F5F5F5F5F5F5F5F5F5E2F5F5E2F5F5F5F5F5F5
310
F5F5F5F5F5E2E2E2E2F5F5F5F5F5F5F5F5F5F5F5F5F5F5F5F5E2E2F5F5F5E2F5F5F5F5F5F5F5F5F5F5F5F5F5F5F5F5F5F5E2F5F5E2E2E2F5E2E2F5F5F5F5F5F5F5F5F5F5F5F5F5F5F5F5F5F5F5F5F5E2F5F5E2EFE2F5F5E2F5F5F5F5F5F5F5F5F5F5F5F5F5F5F5F5F5E2F5F5F5F5F5F5E2F5F5F5F5F5F5F5F5F5E2E2E2E2E2
310
E2E2F5E2E2E2F5F5F5F5F5F5F5F5F5F5F5F5F5F5F5F5F5F5F5F5F5F5F5F5F5E2E2F5F5F5F5F5F5F5F5F5F5E2F5F5E2F5F5F5F5F5F5F5F5F5F5F5E2F5E2E2F5F5F5F5F5F5F5F5F5F5F5F5F5F5F5F5E2E2F5F5F5E2F5F5F5F5F5F5F5F5F5F5F5F5F5F5F5F5F5F5E2F5F5E2E2E2F5E2E2F5F5F5F5F5F5F5F5F5F5F5F5F5F5F5F5
310
F5F5F5F5F5E2F5F5E2EFE2F5F5E2F5F5F5F5F5F5F5F5F5F5F5F5F5F5F5F5F5E2F5F5F5F5F5F5E2F5F5F5F5F5F5F5F5F5E2E2E2E2E2E2E2E2E2E2E2E2E2E2E2E2E2E2E2E2E2E2F5F5F5F5F5F5F5F5F5F5F5F5F5F5E2E2F5F5F5F5F5F5F5F5F5F5E2F5F5E2F5F5F5F5F5F5F5F5F5F5F5E2F5E2E2F5F5F5F5F5F5F5F5F5F5F5F5
310
F5F5F5F5E2E2F5F5F5E2F5F5F5F5F5F5F5F5F5F5F5F5F5F5F5F5F5F5E2F5F5E2E2E2F5E2E2F5F5F5F5F5F5F5F5F5F5F5F5F5F5F5F5F5F5F5F5F5E2F5F5E2EFE2F5F5E2F5F5F5F5F5F5F5F5F5F5F5F5F5F5F5F5F5E2F5F5F5F5F5F5E2F5F5F5F5F5F5F5F5F5E2E2E2E2E2E2E2E2E2E2E2F5F5E2E2E2E2F5F5F5F5E2F5F5F5F5
310
F5F5F5F5F5F5F5F5F5F5E2E2F5F5F5F5F5F5F5F5F5F5E2F5F5E2F5F5F5F5F5F5F5F5F5F5F5E2F5E2E2F5F5F5F5F5F5F5F5F5F5F5F5F5F5F5F5E2E2F5F5F5E2F5F5F5F5F5F5F5F5F5F5F5F5F5F5F5F5F5F5E2E2E2E2E2E2F5E2E2F5F5F5F5F5F5F5F5F5F5F5F5F5F5F5F5F5F5F5F5F5E2F5F5E2EFE2F5F5E2F5F5F5F5F5F5F5
310
F5F5F5F5F5F5F5F5F5F5E2F5F5F5F5F5F5E2F5F5F5F5F5F5F5F5F5E2E2E2E2E2E2E2E2E2E2E2F5F5E2E2F5E2E2E2E2E2E2F5F5F5F5F5F5F5F5F5F5F5F5F5F5E2E2F5F5F5F5F5F5F5F5F5F5E2F5F5E2F5F5F5F5F5F5F5F5F5F5F5E2F5E2E2F5F5F5F5F5F5F5F5F5F5F5F5F5F5F5F5E2E2F5F5F5E2F5F5F5F5F5F5F5F5F5F5F5
310
F5F5F5F5F5F5F5E2E2E2E2E2E2F5E2E2F5F5F5F5F5F5F5F5F5F5F5F5F5F5F5F5F5F5F5F5F5E2F5F5E2EFE2F5F5E2F5F5F5F5F5F5F5F5F5F5F5F5F5F5F5F5F5E2F5F5F5F5F5F5E2F5F5F5F5F5F5F5F5F5E2E2E2E2E2E2E2E2E2E2E2F5F5E2F5F5F5F5F5F5F5E2F5F5F5F5F5F5F5F5F5F5F5F5F5F5E2E2F5F5F5F5F5F5F5F5F5
310
F5E2F5F5E2F5F5F5F5F5F5F5F5F5F5F5E2F5E2E2F5F5F5F5F5F5F5F5F5F5F5F5F5F5F5F5E2E2F5F5F5E2F5F5F5F5F5F5F5F5F5F5F5F5F5F5F5F5F5F5E2E2F5E2E2E2E2E2E2F5F5F5F5F5F5F5F5F5F5F5F5F5F5F5F5F5F5F5F5F5E2F5F5E2EFE2F5F5E2F5F5F5F5F5F5F5F5F5F5F5F5F5F5F5F5F5E2F5F5F5F5F5F5E2F5F5F5
310
F5F5F5F5F5F5E2E2E2E2E2E2E2E2E2E2E2F5F5E2E2E2E2E2E2E2E2E2F5F5F5F5F5F5F5F5F5F5F5F5F5F5E2E2F5F5F5F5F5F5F5F5F5F5E2F5F5E2F5F5F5F5F5F5F5F5F5F5F5E2F5E2E2F5F5F5F5F5F5F5F5F5F5F5F5F5F5F5F5E2E2F5F5F5E2F5F5F5F5F5F5F5F5F5F5F5F5F5F5F5F5F5F5E2E2F5E2E2E2E2E2E2F5F5F5F5F5
310
F5F5F5F5F5F5F5F5F5F5F5F5F5F5F5F5E2F5F5E2EFE2F5F5E2F5F5F5F5F5F5F5F5F5F5F5F5F5F5F5F5F5E2F5F5F5F5F5F5E2F5F5F5F5F5F5F5F5F5E2E2E2E2E2E2E2E2E2E2E2F5F5E2F5F5F5F5F5F5F5E2F5F5F5F5F5F5F5F5F5F5F5F5F5F5E2E2F5F5F5F5F5F5F5F5F5F5E2F5F5E2F5F5F5F5F5F5F5F5F5F5F5E2F5E2E2F5
310
F5F5F5F5F5F5F5F5F5F5F5F5F5F5F5E2E2F5F5F5E2F5F5F5F5F5F5F5F5F5F5F5F5F5F5F5F5F5F5E2E2E2E2E2E2F5E2E2F5F5F5F5F5F5F5F5F5F5F5F5F5F5F5F5F5F5F5F5F5E2F5F5E2EFE2F5F5E2F5F5F5F5F5F5F5F5F5F5F5F5F5F5F5F5F5E2F5F5F5F5F5F5E2F5F5F5F5F5F5F5F5F5E2E2E2E2E2E2E2E2E2E2E2F5F5E2F5
310
F5F5F5F5F5F5E2F5F5F5F5F5F5F5F5F5F5F5F5F5F5E2E2F5F5F5F5F5F5F5F5F5F5E2F5F5E2F5F5F5F5F5F5F5F5F5F5F5E2F5E2E2F5F5F5F5F5F5F5F5F5F5F5F5F5F5F5F5E2E2E2E2E2E2F5F5F5F5F5F5F5F5F5F5F5F5F5F5F5F5F5F5E2E2F5E2E2E2F5E2E2F5F5F5F5F5F5F5F5F5F5F5F5F5F5F5F5F5F5F5F5F5E2F5F5E2EF
310
E2F5F5E2F5F5F5F5F5F5F5F5F5F5F5F5F5F5F5F5F5E2F5F5F5F5F5F5E2F5F5F5F5F5F5F5F5F5E2E2E2E2E2E2E2E2E2E2E2F5F5E2F5F5F5F5F5F5F5E2F5F5F5F5F5F5F5F5F5F5F5F5F5F5E2E2F5F5F5F5F5F5F5F5F5F5E2F5F5E2F5F5F5F5F5F5F5F5F5F5F5E2F5E2E2F5F5F5F5F5F5F5F5F5F5F5F5F5F5F5F5E2E2F5F5F5E2
310
F5F5F5F5F5F5F5F5F5F5F5F5F5F5F5F5F5F5E2E2F5E2E2E2F5E2E2F5F5F5F5F5F5F5F5F5F5F5F5F5F5F5F5F5F5F5F5F5E2F5F5E2EFE2F5F5E2F5F5F5F5F5F5F5F5F5F5F5F5F5F5F5F50F0F0F0F0F0F0F0F0F0F0F0FF5F50F0F0FF5E20F0F0F0F0F0F0F0F0F0F0F0F0F0FF50F0F0F0FF5E20F0F0F0F0F0F0F0F0F0F0F0F0F0F
310
E20F0F0F0FF50F0F0F0F0F0FE20F0FE20F0F0F0FF5F50F0F0F0FF50F0F0F0F0F0F0F0F0F0F0F0F0F0FF5F50F0F0F0FE20F0F0F0F0F0F0F0F0F0F0F0F0F0FF5F50F0F0FF5F50F0F0F0F0F0F0F0F0F0F0F0FF5F5F5F5F5F5F5F5F5F5F5F5F5F5F5F5F5F5F5F5E2F5F5E2EFE2F5F5E2F5F5F5F5F5F5F5F5F5F5F5F5F5F5F5F5F5
310
E2F5F5F5F5F5F5E2F5F5F5F5F5F5F5F5F5E2E2E2E2E2E2E2E2E2E2E2F5F5E2F5F5F5F5F5F5F5E2F5F5F5F5F5F5F5F5F5F5F5F5F5F5E2E2F5F5F5F5F5F5F5F5F5F5E2F5F5E2F5F5F5F5F5F5F5F5F5F5F5E2F5E2E2F5F5F5F5F5F5F5F5F5F5F5F5F5F5F5F5E2E2F5F5F5E2F5F5F5F5F5F5F5F5F5F5F5F5F5F5F5F5F5F5E2E2F5
310
E2E2E2F5E2E2F5F5F5F5F5F5F5F5F5F5F5F5F5F5F5F5F5F5F5F5F5E2F5F5E2EFE2F5F5E2F5F5F5F5F5F5F5F5F5F5F5F5F5F5F5F5F5E2F5F5F5F5F5F5E2F5F5F5F5F5F5F5F5F5E2E2E2E2E2E2E2E2E2E2E2F5F5E2F5F5F5F5F5F5F5E2F5F5F5F5F5F5F5F5F5F5F5F5F5F5E2E2F5F5F5F5F5F5F5F5F5F5E2F5F5E2F5F5F5F5F5
310
F5F5F5F5F5F5E2F5E2E2F5F5F5F5F5F5F5F5F5F5F5F5F5F5F5F5E2E2E2E2E2E2F5F5F5F5F5F5F5F5F5F5F5F5F5F5F5F5F5F5E2E2F5E2E2E2F5E2E2F5F5F5F5F5F5F5F5F5F5F5F5F5F5F5F5F5F5F5F5F5E2F5F5E2EFE2F5F5E2F5F5F5F5F5F5F5F5F5F5F5F5F5F5F5F5F5E2F5F5F5F5F5F5E2F5F5F5F5F5F5F5F5F5E2E2E2E2
310
E2E2E2E2E2E2E2F5F5E2F5F5F5F5F5F5F5E2F5F5F5F5F5F5F5F5F5F5F5F5F5F5E2E2F5F5F5F5F5F5F5F5F5F5E2F5F5E2F5F5F5F5F5F5F5F5F5F5F5E2F5E2E2F5F5F5F5F5F5F5F5F5F5F5F5F5F5F5F5E2E2F5F5F5E2F5F5F5F5F5F5F5F5F5F5F5F5F5F5F5F5F5F5E2E2F5E2E2E2E2E2E2F5F5F5F5F5F5F5F5F5F5F5F5F5F5F5
310
F5F5F5F5F5F5E2F5F5E2EFE2F5F5E2F5F5F5F5F5F5F5F5F5F5F5F5F5F5F5F5F5E2F5F5F5F5F5F5E2F5F5F5F5F5F5F5F5F5E2E2E2E2E2E2E2E2E2E2E2F5F5E2E2E2E2F5F5F5F5E2F5F5F5F5F5F5F5F5F5F5F5F5F5F5E2E2F5F5F5F5F5F5F5F5F5F5E2F5F5E2F5F5F5F5F5F5F5F5F5F5F5E2F5E2E2F5F5F5F5F5F5F5F5F5F5F5
310
F5F5F5F5F5E2E2F5F5F5E2F5F5F5F5F5F5F5F5F5F5F5F5F5F5F5F5F5F5E2E2F5E2F5F5F5F5E2F5F5F5F5F5F5F5F5F5F5F5F5F5F5F5F5F5F5F5F5F5E2F5F5E2EFE2F5F5E2F5F5F5F5F5F5F5F5F5F5F5F5F5F5F5F5F5E2F5F5F5F5F5F5E2F5F5F5F5F5F5F5F5F5E2E2E2E2E2E2E2E2E2E2E2F5F5E2E2F5E2E2E2E2E2E2F5F5F5
310
F5F5F5F5F5F5F5F5F5F5F5E2E2F5F5F5F5F5F5F5F5F5F5E2F5F5E2F5F5F5F5F5F5F5F5F5F5F5E2F5E2E2F5F5F5F5F5F5F5F5F5F5F5F5F5F5F5F5E2E2F5F5F5E2F5F5F5F5F5F5F5F5F5F5F5F5F5F5F5F5F5F5E2E2F5E2E2E2E2E2E2F5F5F5F5F5F5F5F5F5F5F5F5F5F5F5F5F5F5F5F5F5E2F5F5E2EFE2F5F5E2F5F5F5F5F5F5
310
F5F5F5F5F5F5F5F5F5F5F5E2F5F5F5F5F5F5E2F5F5F5F5F5F5F5F5F5E2E2E2E2E2E2E2E2E2E2E2F5F5E2F5F5F5F5F5F5F5E2F5F5F5F5F5F5F5F5F5F5F5F5F5F5E2E2F5F5F5F5F5F5F5F5F5F5E2F5F5E2F5F5F5F5F5F5F5F5F5F5F5E2F5E2E2F5F5F5F5F5F5F5F5F5F5F5F5F5F5F5F5E2E2F5F5F5E2F5F5F5F5F5F5F5F5F5F5
310
F5F5F5F5F5F5F5F5E2E2F5E2E2E2F5E2E2F5F5F5F5F5F5F5F5F5F5F5F5F5F5F5F5F5F5F5F5F5E2F5F5E2EFE2F5F5E2F5F5F5F5F5F5F5F5F5F5F5F5F5F5F5F5F5E2F5F5F5F5F5F5E2F5F5F5F5F5F5F5F5F5E2E2E2E2E2E2E2E2E2E2E2F5F5E2E2E2E2E2E2E2E2E2F5F5F5F5F5F5F5F5F5F5F5F5F5F5E2E2F5F5F5F5F5F5F5F5
310
F5F5E2F5F5E2F5F5F5F5F5F5F5F5F5F5F5E2F5E2E2F5F5F5F5F5F5F5F5F5F5F5F5F5F5F5F5E2E2F5F5F5E2F5F5F5F5F5F5F5F5F5F5F5F5F5F5F5F5F5F5E2E2F5E2E2E2F5E2E2F5F5F5F5F5F5F5F5F5F5F5F5F5F5F5F5F5F5F5F5F5E2F5F5E2EFE2F5F5E2F5F5F5F5F5F5F5F5F5F5F5F5F5F5F5F5F5E2F5F5F5F5F5F5E2F5F5
310
F5F5F5F5F5F5F5E2E2E2E2E2E2E2E2E2E2E2E2E2E2E2E2E2E2E2E2E2E2F5F5F5F5F5F5F5F5F5F5F5F5F5F5E2E2F5F5F5F5F5F5F5F5F5F5E2F5F5E2F5F5F5F5F5F5F5F5F5F5F5E2F5E2E2F5F5F5F5F5F5F5F5F5F5F5F5F5F5F5F5E2E2F5F5F5E2F5F5F5F5F5F5F5F5F5F5F5F5F5F5F5F5F5F5E2E2E2E2E2E2F5E2E2F5F5F5F5
310
F5F5F5F5F5F5F5F5F5F5F5F5F5F5F5F5F5E2F5F5E2EFE2F5F5E2F5F5F5F5F5F5F5F5F5F5F5F5F5F5F5F5F5E2F5F5F5F5F5F5E2F5F5F5F5F5F5F5F5F5E2E2E2E2E2E2E2F5E2E2E2F5F5F5F5F5F5F5F5F5F5F5F5F5F5F5F5F5F5F5F5F5F5F5F5F5E2E2F5F5F5F5F5F5F5F5F5F5E2F5F5E2F5F5F5F5F5F5F5F5F5F5F5E2F5E2E2
310
F5F5F5F5F5F5F5F5F5F5F5F5F5F5F5F5E2E2F5F5F5E2F5F5F5F5F5F5F5F5F5F5F5F5F5F5F5F5F5F5E2F5F5E2E2E2F5E2E2F5F5F5F5F5F5F5F5F5F5F5F5F5F5F5F5F5F5F5F5F5E2F5F5E2EFE2F5F5E2F5F5F5F5F5F5F5F5F5F5F5F5F5F5F5F5F5E2E2E2E2BEE2E2E2F5F5F5F5F5F5F5F5F5E2F5F5F5F5F5F5F5F5F5F5F5F5F5
310
F5F5F5F5F5F5F5F5F5F5F5F5F5F5F5F5F5F5F5F5F5F5E2E2F5F5F5F5F5F5F5F5F5F5BEBEBEBEF5F5F5F5F5F5F5F5F5F5F5E2E2E2E2F5F5F5F5F5F5F5F5F5F5F5F5F5F5F5F5E2E2F5F5F5E2F5F5F5F5F5F5F5F5F5F5F5F5F5F5F5F5F5F5E2F5F5E2E2E2F5E2E2F5F5F5F5F5F5F5F5F5F5F5F5F5F5F5F5F5F5F5F5F5E2F5F5E2
310
EFE2F5F5E2F5F5F5F5F5F5F5F5F5F5F5F5F5F5F5F5F5F5F5F5F5BEF5F5E2F5F5F5F5F5F5F5F5F5E2F5F5F5F5F5F5F5F5F5F5F5F5F5F5F5F5F5F5F5F5F5F5F5F5F5F5F5F5F5F5F5F5F5F5F5E2E2F5F5F5F5F5F5F5F5F5F5BEBEBEBEF5F5F5F5F5F5F5F5F5F5F5F5F5E2E2F5F5F5F5F5F5F5F5F5F5F5F5F5F5F5F5E2E2F5F5F5
310
E2F5F5F5F5F5F5F5F5F5F5F5F5F5F5F5F5F5F5E2F5F5E2E2E2F5E2E2F5F5F5F5F5F5F5F5F5F5F5F5F5F5F5F5F5F5F5F5F5E2F5F5E2EFE2F5F5E2F5F5F5F5F5F5F5F5F5F5F5F5F5F5F5F5F5F5F5F5F5BEF5F5E2E2E2E2E2E2E2E2E2E2E2F5F5F5F5F5F5F5F5F5F5F5F5F5F5F5F5F5F5F5F5F5F5F5F5F5F5F5F5F5F5F5F5F5F5
310
F5E2E2F5F5F5F5F5F5F5F5F5F5BEBEBEBEF5F5F5F5F5F5F5F5F5F5F5F5F5E2E2F5F5F5F5F5F5F5F5F5F5F5F5F5F5F5F5E2E2BEE2E2E2F5F5F5F5F5F5F5F5F5F5F5F5F5F5F5F5F5F5E2F5F5E2E2E2E2E2E2F5F5F5F5F5F5F5F5F5F5F5F5F5F5F5F5F5F5F5F5F5E2F5F5E2EFE2F5F5E2F5F5F5F5F5F5F5F5F5F5F5F5F5F5F5F5
310
F5F5F5F5F5F5BEF5F5F5F5F5F5F5F5F5F5F5F5F5F5F5F5F5F5F5F5F5F5F5F5F5F5F5F5F5F5F5F5F5F5F5F5F5F5F5F5F5F5F5F5F5F5F5F5F5F5F5F5F5F5F5F5F5F5F5BEBEBEBEF5F5F5F5F5F5F5F5F5F5F5F5F5F5F5F5F5F5F5F5F5F5F5F5F5F5F5F5F5F5F5E2E2BEE2E2E2F5F5F5F5F5F5F5F5F5F5F5F5F5F5F5F5F5F5E2E2
310
E2E2E2E2E2E2E2F5F5F5F5F5F5F5F5F5F5F5F5F5F5F5F5F5F5F5F5F5E2F5F5E2EFE2F5F5E2F5F5F5F5F5F5F5F5F5F5F5F5F5F5F5F5F5F5F5F5F5F5BEF5F5F5F5F5F5F5F5F5F5F5F5F5F5F5F5F5F5F5F5F5F5F5F5F5F5F5F5F5F5F5F5F5F5F5F5F5F5F5F5F5F5F5F5F5F5F5F5F5F5F5F5F5F5F5F5F5F5F5BEBEBEBEF5F5F5F5
310
F5F5F5F5F5F5F5F5F5F5F5F5F5F5F5F5F5F5F5F5F5F5F5F5F5F5F5F5F5BEF5F5F5F5F5F5F5F5F5F5F5F5F5F5F5F5F5F5F5F5F5F5F5F5F5F5F5F5F5F5F5F5F5F5F5F5F5F5F5F5F5F5F5F5F5F5F5F5F5F5F5E2F5F5E2EFE2F5F5E2F5F5F5F5F5F5F5F5F5F5F5F5F5F5F5F5F5F5F5F5F5F5F5BEF5F5F5F5F5F5F5F5F5F5F5F5F5
310
F5F5F5F5F5F5F5F5F5F5F5F5F5F5F5F5F5F5F5F5F5F5F5F5F5F5F5F5F5F5F5F5F5F5F5F5F5F5F5F5F5F5F5F5F5BEBEBEBEF5F5F5F5F5F5F5F5F5F5F5F5F5F5F5F5F5F5F5F5F5F5F5F5F5F5F5F5F5F5F5F5F5BEF5F5F5F5F5F5F5F5F5F5F5F5F5F5F5F5F5F5F5F5F5F5F5F5F5F5F5F5F5F5F5F5F5F5F5F5F5F5F5F5F5F5F5F5
310
F5F5F5F5F5F5F5E2F5F5E2EFE2F5F5E2F5F5F5F5F5F5F5F5F5F5F5F5F5F5F5F5F5F5F5F5F5F5F5BEF5F5F5F5F5F5F5F5F5F5F5F5F5F5F5F5F5F5F5F5F5F5F5F5F5F5F5F5F5F5F5F5F5F5F5F5F5F5F5F5F5F5F5F5F5F5F5F5F5F5F5F5F5F5F5F5F5F5BEBEBEBEF5F5F5F5F5F5F5F5F5F5F5F5F5F5F5F5F5F5F5F5F5F5F5F5F5
310
F5F5F5F5F5F5F5F5BEF5F5F5F5F5F5F5F5F5F5F5F5F5F5F5F5F5F5F5F5F5F5F5F5F5F5F5F5F5F5F5F5F5F5F5F5F5F5F5F5F5F5F5F5F5F5F5F5F5F5F5E2F5F5E2EFE2F5F5E2F5F5F5F5F5F5F5F5F5F5F5F5F5F5F5F5F5F5F5F5F5F5F5F5BEF5F5F5F5F5F5F5F5F5F5F5F5F5F5F5F5F5F5F5F5F5F5F5F5F5F5F5F5F5F5F5F5F5
310
F5F5F5F5F5F5F5F5F5F5F5F5F5F5F5F5F5F5F5F5F5F5F5F5BEBEBEBEF5F5F5F5F5F5F5F5F5F5F5F5F5F5F5F5F5F5F5F5F5F5F5F5F5F5F5F5F5F5F5F5F5F5BEF5F5F5F5F5F5F5F5F5F5F5F5F5F5F5F5F5F5F5F5F5F5F5F5F5F5F5F5F5F5F5F5F5F5F5F5F5F5F5F5F5F5F5F5F5F5F5F5F5F5E2F5F5E2EFE2F5F5E2F5F5F5F5F5
310
F5F5F5F5F5F5F5F5F5F5F5F5F5F5F5F5F5F5F5BEF5F5F5F5F5F5F5F5F5F5F5F5F5F5F5F5F5F5F5F5F5F5F5F5F5F5F5F5F5F5F5F5F5F5F5F5F5F5F5F5F5F5F5F5F5F5F5F5F5F5F5F5F5F5F5F5F5BEBEBEBEF5F5F5F5F5F5F5F5F5F5F5F5F5F5F5F5F5F5F5F5F5F5F5F5F5F5F5F5F5F5F5F5F5F5BEF5F5F5F5F5F5F5F5F5F5F5
310
F5F5F5F5F5F5F5F5F5F5F5F5F5F5F5F5F5F5F5F5F5F5F5F5F5F5F5F5F5F5F5F5F5F5F5F5F5F5F5E2F5F5E2EFE2F5F5E2F5F5F5F5F5F5F5F5F5F5F5F5F5F5F5F5F5F5F5F5F5F5F5F5F5BEF5F5F5F5F5F5F5F5F5F5F5F5F5F5F5F5F5F5F5F5F5F5F5F5F5F5F5F5F5F5F5F5F5F5F5F5F5F5F5F5F5F5F5F5F5F5F5F5F5F5F5F5F5
310
F5F5F5BEBEBEBEF5F5F5F5F5F5F5F5F5F5F5F5F5F5F5F5F5F5F5F5F5F5F5F5F5F5F5F5F5F5F5F5F5F5BEF5F5F5F5F5F5F5F5F5F5F5F5F5F5F5F5F5F5F5F5F5F5F5F5F5F5F5F5F5F5F5F5F5F5F5F5F5F5F5F5F5F5F5F5F5F5F5F5F5F5E2F5F5E2EFE2F5F5E2F5F5F5F5F5F5F5F5F5F5F5F5F5F5F5F5F5F5F5F5F5F5F5F5F5BE
310
BEBEBEF5BEBEBEBEF5BEBEBEBEBEBEBEBEBEBEF5F5F5F5F5F5F5F5F5F5F5F5F5F5F5F5F5F5F5F5F5F5F5F5F5F5F5F5F5F5F5F5F5F5F5F5F5BEBEBEBEF5F5F5F5F5F5F5F5F5F5F5F5F5F5F5F5F5F5F5F5F5F5F5F5F5F5F5F5F5F5F5F5F5F5BEF5F5F5F5F5BEBEBEBEBEBEBEBEBEBEBEF5BEBEBEBEBEBEBEBEBEF5F5F5F5F5F5
310
F5F5F5F5F5F5F5F5F5F5F5F5F5F5F5F5F5F5E2F5F5E2EFE2F5F5E2F5F5F5F5F5F5F5F5F5F5F5F5F5F5F5F5F5F5F5F5F5F5F5F5F5F5F5F5F5BEBEBEBEBEF5BEBEBEBEBEBEBEBEBEBEF5F5F5F5F5F5F5F5F5F5F5F5F5F5F5F5F5F5F5F5F5F5F5F5F5F5F5F5F5F5F5F5F5F5F5F5F5BEBEBEBEF5F5F5F5F5F5F5F5F5F5F5F5F5F5
310
F5F5F5F5F5F5F5F5F5F5F5F5F5F5F5F5F5F5F5F5F5BEF5F5F5F5BEBEBEBEBEBEBEBEBEBEBEBEBEBEBEBEBEBEBEBEBEBEF5F5F5F5F5F5F5F5F5F5F5F5F5F5F5F5F5F5F5F5F5F5F5E2F5F5E2EFE2F5F5E2F5F5F5F5F5F5F5F5F5F5F5F5F5F5F5F5F5F5F5F5F5F5F5F5F5F5F5F5F5F5F5F5F5F5F5F5F5F5F5F5F5F5F5F5F5F5F5
310
F5F5F5F5F5F5F5F5F5F5F5F5F5F5F5F5F5F5F5F5F5F5F5F5F5F5F5F5F5F5F5F5F5F5F5BEBEBEBEF5F5F5F5F5F5F5F5F5F5F5F5F5F5F5F5F5F5F5F5F5F5F5F5F5F5F5F5F5F5F5F5F5F5F5BEF5F5F5F5BEBEBEF5BEBEBEBEBEBEBEBEBEBEF5F5F5F5F5F5F5F5F5F5F5F5F5F5F5F5F5F5F5F5F5F5F5F5F5F5F5F5F5F5F5E2F5F5
310
E2EFE2F5F5E2F5F5F5F5F5F5F5F5F5F5F5F5F5F5F5F5F5F5F5F5F5F5F5F5F5F5F5F5F5F5F5F5F5F5F5F5F5F5F5F5F5F5F5F5F5F5F5F5F5F5F5F5F5F5F5F5F5F5F5F5F5F5F5F5F5F5F5F5F5F5F5F5F5F5F5F5F5F5F5F5F5F5BEBEBEBEF5F5F5F5F5F5F5F5F5F5F5F5F5F5F5F5F5F5F5F5F5F5F5F5F5F5F5F5F5F5F5F5F5F5F5
310
BEBEBEBEBEBEBEBEBEBEBEBEBEBEBEBEBEBEBEF5F5F5F5F5F5F5F5F5F5F5F5F5F5F5F5F5F5F5F5F5F5F5F5F5F5F5F5F5F5F5E2F5F5E2EFE2F5F5E2F5F5F5F5F5F5F5F5F5F5F5F5F5F5F5F5F5F5F5F5F5F5F5F5F5F5F5F5F5F5F5F5F5F5F5F5F5F5F5F5F5F5F5F5F5F5F5F5F5F5F5F5F5F5F5F5F5F5F5F5F5F5F5F5F5F5F5F5
310
F5F5F5F5F5F5F5F5F5F5F5F5F5F5BEBEBEBEF5F5F5F5F5F5F5F5F5F5F5F5F5F5F5F5F5F5F5F5F5F5F5F5F5F5F5F5F5F5F5F5F5F5F5F5F5F5F5F5F5F5F5F5F5F5F5F5F5F5F5F5F5F5F5F5F5F5F5F5F5F5F5F5F5F5F5F5F5F5F5F5F5F5F5F5F5F5F5F5F5F5F5F5F5E2F5F5E2EFE2F5F5E2F5F5F5F5F5F5F5F5F5F5F5F5F5F5F5
310
F5F5F5F5F5F5F5F5F5F5F5F5F5F5F5F5F5F5F5F5F5F5F5F5F5F5F5F5F5F5F5F5F5F5F5F5F5F5F5F5F5F5F5F5F5F5F5F5F5F5F5F5F5F5F5F5F5F5F5F5F5F5F5F5F5F5F5BEBEBEBEF5F5F5F5F5F5F5F5F5F5F5F5F5F5F5F5F5F5F5F5F5F5F5F5F5F5F5F5F5F5F5F5F5F5F5F5F5F5F5F5F5F5F5F5F5F5F5F5F5F5F5F5F5F5F5F5
310
F5F5F5F5F5F5F5F5F5F5F5F5F5F5F5F5F5F5F5F5F5F5F5F5F5F5F5F5F5E2F5F5E2EFE2F5F5E2F5F5F5F5F5F5F5F5F5F5F5F5F5F5F5F5F5F5F5F5F5F5F5F5F5F5F5F5F5F5F5F5F5F5F5F5F5F5F5F5F5F5F5F5F5F5F5F5F5F5F5F5F5F5F5F5F5F5F5F5F5F5F5F5F5F5F5F5F5F5F5F5F5F5F5F5F5F5F5F5F5F5BEBEBEBEF5F5F5
310
F5F5F5F5F5F5F5F5F5F5F5F5F5F5F5F5F5F5F5F5F5F5F5F5F5F5F5F5F5F5F5F5F5F5F5F5F5F5F5F5F5F5F5F5F5F5F5F5F5F5F5F5F5F5F5F5F5F5F5F5F5F5F5F5F5F5F5F5F5F5F5F5F5F5F5F5F5F5F5F5F5F5E2F5F5E2EFE2F5F5E2F5F5F5F5F5F5F5F5F5F5F5F5F5F5F5F5F5F5F5F5F5F5F5F5F5F5F5F5F5F5F5F5F5F5F5F5
310
F5F5F5F5F5F5F5F5F5F5F5F5F5F5F5F5F5F5F5F5F5F5F5F5F5F5F5F5F5F5F5F5F5F5F5F5F5F5F5F5F5F5F5F5F5F5BEBEBEBEF5F5F5F5F5F5F5F5F5F5F5F5F5F5F5F5F5F5F5F5F5F5F5F5F5F5F5F5F5F5F5F5F5F5F5F5F5F5F5F5F5F5F5F5F5F5F5F5F5F5F5F5F5F5F5F5F5F5F5F5F5F5F5F5F5F5F5F5F5F5F5F5F5F5F5F5F5
310
F5F5F5F5F5F5F5F5E2F5F5E2EFE2F5F5E2F5F5F5F5F5F5F5F5F5F5F5F5F5F5F5F5F5F5F5F5F5F5F5F5F5F5F5F5F5F5F5F5F5F5F5F5F5F5F5F5F5F5F5F5F5F5F5F5F5F5F5F5F5F5F5F5F5F5F5F5F5F5F5F5F5F5F5F5F5F5F5F5F5F5F5F5F5F5F5F5F5F5BEBEBEBEF5F5F5F5F5F5F5F5F5F5F5F5F5F5F5F5F5F5F5F5F5F5F5F5
310
F5F5F5F5F5F5F5F5F5F5F5F5F5F5F5F5F5F5F5F5F5F5F5F5F5F5F5F5F5F5F5F5F5F5F5F5F5F5F5F5F5F5F5F5F5F5F5F5F5F5F5F5F5F5F5F5F5F5F5F5F5E2F5F5E2EFE2F5F5E2F5F5F5F5F5F5F5F5F5F5F5F5F5F5F5F5F5F5F5F5F5F5F5F5F5F5F5F5F5F5F5F5F5F5F5F5F5F5F5F5F5F5F5F5F5F5F5F5F5F5F5F5F5F5F5F5F5
310
F5F5F5F5F5F5F5F5F5F5F5F5F5F5F5F5F5F5F5F5F5F5F5F5F5BEBEBEBEF5F5F5F5F5F5F5F5F5F5F5F5F5F5F5F5F5F5F5F5F5F5F5F5F5F5F5F5F5F5F5F5F5F5F5F5F5F5F5F5F5F5F5F5F5F5F5F5F5F5F5F5F5F5F5F5F5F5F5F5F5F5F5F5F5F5F5F5F5F5F5F5F5F5F5F5F5F5F5F5F5F5F5F5F5E2F5F5E2EFE2F5F5E2F5F5F5F5
310
F5F5F5F5F5F5F5F5F5F5F5F5F5F5F5F5F5F5F5F5F5F5F5F5F5F5F5F5F5F5F5F5F5F5F5F5F5F5F5F5F5F5F5F5F5F5F5F5F5F5F5F5F5F5F5F5F5F5F5F5F5F5F5F5F5F5F5F5F5F5F5F5F5F5F5F5F5F5BEBEBEBEF5F5F5F5F5F5F5F5F5F5F5F5F5F5F5F5F5F5F5F5F5F5F5F5F5F5F5F5F5F5F5F5F5F5F5F5F5F5F5F5F5F5F5F5F5
310
F5F5F5F5F5F5F5F5F5F5F5F5F5F5F5F5F5F5F5F5F5F5F5F5F5F5F5F5F5F5F5F5F5F5F5F5F5F5F5F5E2F5F5E2EFE2F5F5E2F5F5F5F5F5F5F5F5F5F5F5F5F5F5F5F5F5F5F5F5F5F5F5F5F5F5F5F5F5F5F5F5F5F5F5F5F5F5F5F5F5F5F5F5F5F5F5F5F5F5F5F5F5F5F5F5F5F5F5F5F5F5F5F5F5F5F5F5F5F5F5F5F5F5F5F5F5F5
310
F5F5F5F5BEBEBEBEF5F5F5F5F5F5F5F5F5F5F5F5F5F5F5F5F5F5F5F5F5F5F5F5F5F5F5F5F5F5F5F5F5F5F5F5F5F5F5F5F5F5F5F5F5F5F5F5F5F5F5F5F5F5F5F5F5F5F5F5F5F5F5F5F5F5F5F5F5F5F5F5F5F5F5F5F5F5F5F5F5F5F5F5F5E2F5F5E2EFE2F5F5E2F5F5F5F5F5F5F5F5F5F5F5F5F5F5F5F5F5F5F5F5F5F5F5F5F5
310
F5F5F5F5F5F5F5F5F5F5F5F5F5F5F5F5F5F5F5F5F5F5F5F5F5F5F5F5F5F5F5F5F5F5F5F5F5F5F5F5F5F5F5F5F5F5F5F5F5F5F5F5F5F5F5F5F5F5BEF5F5F5F5F5F5F5F5F5F5F5F5F5F5F5F5F5F5F5F5F5F5F5F5F5F5F5F5F5F5F5F5F5F5F5F5F5F5F5F5F5F5F5F5F5F5F5F5F5F5F5F5F5F5F5F5F5F5F5F5F5F5F5F5F5F5F5F5
310
F5F5F5F5F5F5F5F5F5F5F5F5F5F5F5F5F5F5F5E2F5F5E2EFE2F5F5E2F5F5F5F5F5F5F5F5F5F5F5F5F5F5F5F5F5F5F5F5F5F5F5F5F5F5F5F5F5F5F5F5F5F5F5F5F5F5F5F5F5F5F5F5F5F5F5F5F5F5F5F5F5F5F5F5F5F5F5F5F5F5F5F5F5F5F5F5F5F5F5F5F5F5F5F5F5F5F5F5F5F5F5BEF5F5F5F5F5F5F5F5F5F5F5F5F5F5F5
310
F5F5F5F5F5F5F5F5F5F5F5F5F5F5F5F5F5F5F5F5F5F5F5F5F5F5F5F5F5F5F5F5F5F5F5F5F5F5F5F5F5F5F5F5F5F5F5F5F5F5F5F5F5F5F5F5F5F5F5F5F5F5F5F5F5F5F5F5F5F5F5F5E2F5F5E2EFE2F5F5E2BEBEBEBEBEF5F5F5F5F5F5F5F5F5F5F5F5F5F5F5F5F5F5F5F5F5F5F5F5F5F5F5F5F5F5F5F5F5F5F5F5F5F5F5F5F5
310
F5F5F5F5F5F5F5F5F5F5F5F5F5F5F5F5F5F5F5F5F5F5F5F5F5F5F5F5F5F5F5F5F5F5F5F5F5BEF5F5F5F5F5F5F5F5F5F5F5F5F5F5F5F5F5F5F5F5F5F5F5F5F5F5F5F5F5F5F5F5F5F5F5F5F5F5F5F5F5F5F5F5F5F5F5F5F5F5F5F5F5F5F5F5F5F5F5F5F5F5F5F5F5F5F5F5F5F5F5F5F5F5F5F5F5F5F5F5F5F5F5F5F5F5F5E2F5
310
F5E2EFE2F5F5E2BEBEBEBEBEF5F5F5F5F5F5F5F5F5F5F5F5F5F5F5F5F5F5F5F5F5F5F5F5F5F5F5F5F5F5F5F5F5F5F5F5F5F5F5F5F5F5F5F5F5F5F5F5F5F5F5F5F5F5F5F5F5F5F5F5F5F5F5F5F5F5F5F5F5F5F5F5F5F5F5F5F5F5BEF5F5F5F5F5F5F5F5F5F5F5F5F5F5F5F5F5F5F5F5F5F5F5F5F5F5F5F5F5F5F5F5F5F5F5F5
310
F5F5F5F5F5F5F5F5F5F5F5F5F5F5F5F5F5F5F5F5F5F5F5F5F5F5F5F5F5F5F5F5F5F5F5F5F5F5F5F5F5F5F5F5F5F5F5F5F5F5F5E2F5F5E2EFE2F5F5E2BEBEBEBEBEF5F5F5F5F5F5F5F5F5F5F5F5F5F5F5F5F5F5F5F5F5F5F5F5F5F5F5F5F5F5F5F5F5F5F5F5F5F5F5F5F5F5F5F5F5F5F5F5F5F5F5F5F5F5F5F5F5F5F5F5F5F5
310
F5F5F5F5F5F5F5F5F5F5F5F5F5F5F5BEF5F5F5F5F5F5F5F5F5F5F5F5F5F5F5F5F5F5F5F5F5F5F5F5F5F5F5F5F5F5F5F5F5F5F5F5F5F5F5F5F5F5F5F5F5F5F5F5F5F5F5F5F5F5F5F5F5F5F5F5F5F5F5F5F5F5F5F5F5F5F5F5F5F5F5F5F5F5F5F5F5F5F5F5F5F5F5F5E2F5F5E2EFE2F5F5E2BEBEBEF5BEBEBEBEBEBEBEBEBEBE
310
BEBEBEBEBEF5BEBEBEF5BEBEBEBEBEBEF5BEBEBEBEBEBEF5F5BEBEBEBEBEBEBEBEBEBEBEBEBEF5F5F5F5F5F5F5F5F5F5F5F5F5F5F5F5BEBEBEBEBEBEBEBEBEBEBEBEBEBEBEF5F5F5F5F5F5F5F5F5F5F5F5F5F5F5F5F5F5F5F5F5F5F5F5F5F5F5F5F5F5F5F5F5F5F5F5F5F5F5F5F5F5F5F5F5F5F5F5F5F5F5F5F5F5F5F5F5F5
310
F5F5F5F5F5F5F5F5F5F5F5F5F5F5F5F5F5F5F5F5F5F5F5F5F5F5F5F5F5F5E2F5F5E2EFE2F5F5E2BEBEBEF5BEBEBEBEBEBEBEBEBEBEBEBEBEBEBEF5BEBEBEF5BEBEBEBEBEBEF5BEF5BEBEBEBEBEBEBEBEBEBEBEBEBEBEBEBEBEBEBEF5F5F5F5F5F5F5F5F5F5F5F5F5F5F5F5BEBEBEBEBEBEBEBEBEBEBEBEF5F5F5F5F5F5F5F5
310
F5F5F5F5F5F5F5F5F5F5F5F5F5F5F5F5F5F5F5F5F5F5F5F5F5F5F5F5F5F5F5F5F5F5F5F5F5F5F5F5F5F5F5F5F5F5F5F5F5F5F5F5F5F5F5F5F5F5F5F5F5F5F5F5F5F5F5F5F5F5F5F5F5F5F5F5F5F5F5F5F5F5F5E2F5F5E2EFE2F5F5E2BEBEF5F5F5BEBEF5BEBEBEBEBEBEBEBEF5BEBEBEBEBEBEBEF5BEBEBEBEBEF5BEBEF5BE
310
BEF5BEBEBEBEBEBEBEBEBEBEBEBEBEBEF5F5BEBEBEBEBEF5F5F5F5F5F5F5F5F5F5F5F5F5F5F5BEBEBEBEBEBEBEF5F5F5F5F5F5F5F5F5F5F5F5F5F5F5F5F5F5F5F5F5F5F5F5F5F5F5F5F5F5F5F5F5F5F5F5F5F5F5F5F5F5F5F5F5F5F5F5F5F5F5F5F5F5F5F5F5F5F5F5F5F5F5F5F5F5F5F5F5F5F5F5F5F5F5F5F5F5F5F5F5F5
310
F5F5F5F5F5F5F5F5F5E2F5F5E2EFE2F5F5E2BEBEF5F5F5BEBEF5BEBEBEBEBEBEBEBEF5BEBEBEBEBEBEBEF5BEBEBEBEBEF5BEBEF5BEBEF5BEBEBEBEBEBEBEBEBEBEBEBEBEBEBEF5BEBEBEBEBEF5F5F5F5F5F5F5F5F5F5F5F5F5F5F5BEBEBEF5BEBEBEF5F5F5F5F5F5F5F5F5F5F5F5F5F5F5F5F5F5F5F5F5F5F5F5F5F5F5F5F5
310
F5F5F5F5F5F5F5F5F5F5F5F5F5F5F5F5F5F5F5F5F5F5F5F5F5F5F5F5F5F5F5F5F5F5F5F5F5F5F5F5F5F5F5F5F5F5F5F5F5F5F5F5F5F5F5F5F5F5F5F5F5F5E2F5F5E2EFE2F5F5E2BEBEF5F5BEBEBEF5BEBEBEBEBEBEBEBEF5BEBEBEBEBEBEBEBEBEBEBEBEBEF5BEBEF5BEBEF5BEBEBEBEBEBEBEBEBEBEBEBEBEBEF5BEBEBEBE
310
BEBEF5F5F5F5F5BEBEBEBEBEBEBEF5BEBEBEBEBEBEBEBEBEF5F5F5F5F5F5F5F5F5F5F5F5F5F5F5F5F5F5F5F5F5F5F5F5F5F5F5F5F5F5F5F5F5F5F5F5F5F5F5F5F5F5F5F5F5F5F5F5F5F5F5F5F5F5F5F5F5F5F5F5F5F5F5F5F5F5F5F5F5F5F5F5F5F5F5F5F5F5F5F5F5F5F5F5F5F5F5F5F5F5F5E2F5F5E2EFE2F5F5E2F5F5F5
310
F5F5F5F5F5F5F5F5F5F5F5F5F5F5F5F5F5F5F5F5F5F5F5F5F5F5F5F5F5F5F5F5F5F5F5F5F5F5F5F5F5F5F5F5F5F5F5F5F5F5F5F5F5F5F5F5F5F5F5F5BEBEBEBEBEBEBEBEBEBEBEBEBEBEBEBEBEF5F5F5F5F5F5F5F5F5F5F5F5F5F5F5F5F5F5F5F5F5F5F5F5F5F5F5F5F5F5F5F5F5F5F5F5F5F5F5F5F5F5F5F5F5F5F5F5F5F5
310
F5F5F5F5F5F5F5F5F5F5F5F5F5F5F5F5F5F5F5F5F5F5F5F5F5F5F5F5F5F5F5F5F5F5F5F5F5F5F5F5F5E2F5F5E2EFE2F5F5E2F5F5F5F5F5F5F5F5F5F5F5F5F5F5F5F5F5F5F5F5F5F5F5F5F5F5F5F5F5F5F5F5F5F5F5F5F5F5F5F5F5F5F5F5F5F5F5F5F5F5F5F5F5F5F5F5F5F5F5F5F5F5F5F5F5F5F5F5F5F5F5F5F5F5F5F5F5
310
F5F5F5F5F5F5F5F5F5F5F5F5F5F5F5F5F5F5F5F5F5F5F5F5F5F5F5F5F5F5F5F5F5F5F5F5F5F5F5F5F5F5F5F5F5F5F5F5F5F5F5F5F5F5F5F5F5F5F5F5F5F5F5F5F5F5F5F5F5F5F5F5F5F5F5F5F5F5F5F5F5F5F5F5F5F5F5F5F5F5F5F5F5F5E2F5F5E2EFE2F5F5E2BEBEBEBEBEBEBEBEBEBEF5BEBEBEBEF5BEBEBEBEBEBEBEBE
310
BEBEBEBEBEBEBEBEBEBEF5BEBEBEBEBEBEF5BEBEBEBEBEF5BEBEBEF5BEBEBEF5F5F5F5F5F5F5F5F5F5F5F5F5F5F5F5F5F5F5F5F5F5F5F5F5F5F5F5F5F5F5F5F5F5F5F5F5F5F5F5F5F5F5F5F5F5F5F5F5F5F5F5F5F5F5F5F5F5F5F5F5F5F5F5F5F5F5F5F5F5F5F5F5F5F5F5F5F5F5F5F5F5F5F5F5F5F5F5F5F5F5F5F5F5F5F5
310
F5F5F5F5F5F5F5F5F5F5F5F5F5F5F5F5F5F5F5F5E2F5F5E2EFE2F5F5E2BEBEBEBEBEF5BEBEBEBEF5BEBEBEBEF5BEBEBEBEBEBEBEBEBEBEBEBEBEBEBEBEBEBEBEBEBEBEBEBEBEBEBEBEBEBEBEBEBEBEBEBEBEBEBEBEF5F5F5F5F5F5F5F5F5F5F5F5F5F5F5F5F5F5F5F5F5F5F5F5F5F5F5F5F5F5F5F5F5F5F5F5F5F5F5F5F5F5
310
F5F5F5F5F5F5F5F5F5F5F5F5F5F5F5F5F5F5F5F5F5F5F5F5F5F5F5F5F5F5F5F5F5F5F5F5F5F5F5F5F5F5F5F5F5F5F5F5F5F5F5F5F5F5F5F5F5F5F5F5F5F5F5F5F5F5F5F5F5F5F5F5F5E2F5F5E2EFE2F5F5E2BEBEBEBEBEF5BEBEBEBEF5BEBEBEBEF5BEBEBEBEBEBEBEBEBEBEBEBEBEBEBEBEBEBEBEBEBEBEBEBEBEBEBEBEBE
310
BEBEBEBEBEBEBEBEBEBEF5F5F5F5F5F5F5F5F5F5F5F5F5F5F5F5F5F5F5F5F5F5F5F5F5F5F5F5F5F5F5F5F5F5F5F5F5F5F5F5F5F5F5F5F5F5F5F5F5F5F5F5F5F5F5F5F5F5F5F5F5F5F5F5F5F5F5F5F5F5F5F5F5F5F5F5F5F5F5F5F5F5F5F5F5F5F5F5F5F5F5F5F5F5F5F5F5F5F5F5F5F5F5F5F5F5F5F5F5F5F5F5F5F5F5F5E2
310
F5F5E2EFE2F5F5E2BEBEF5F5BEBEBEBEF5BEBEBEBEF5BEF5BEBEBEBEBEF5BEBEBEBEBEF5BEBEBEBEBEF5BEBEBEF5BEBEBEBEBEBEBEBEF5BEBEBEBEBEBEF5F5F5F5F5F5F5F5F5F5F5F5F5F5F5F5F5F5F5F5F5F5F5F5F5F5F5F5F5F5F5F5F5F5F5F5F5F5F5F5F5F5F5F5F5F5F5F5F5F5F5F5F5F5F5F5F5F5F5F5F5F5F5F5F5F5
310
F5F5F5F5F5F5F5F5F5F5F5F5F5F5F5F5F5F5F5F5F5F5F5F5F5F5F5F5F5F5F5F5F5F5F5F5F5F5F5F5F5F5F5F5F5F5F5F5F5F5F5F5E2F5F5E2EFE2F5F5E2BEBEE2E2BEBEBEBEF5BEBEBEBEF5BEF5BEBEBEBEBEE2BEBEBEBEBEE2BEBEBEBEBEBEBEBEBEF5BEBEBEBEBEBEBEBEE2BEBEBEBEBEBEE2E2E2E2F5F5F5F5F5F5F5F5E2
310
E2E2E2E2E2E2E2E2E2E2E2E2E2E2E2F5F5F5F5F5F5F5F5F5E2E2E2E2E2E2E2E2E2E2E2E2E2E2E2E2F5F5F5F5F5F5F5F5E2E2E2E2E2E2E2E2E2E2E2E2E2E2E2E2F5F5F5F5F5F5F5F5F5E2E2E2E2E2E2E2E2E2E2E2E2E2E2E2E2F5F5F5F5F5F5F5F5F5E2E2E2E2E2E2E2E2F5F5E2EFE2F5F5E2F5BEF5F5F5F5F5F5F5F5F5F5F5
310
F5F5F5F5F5F5F5F5F5F5F5F5F5F5F5F5F5F5F5F5F5F5F5F5F5F5F5F5F5F5F5F5F5F5F5F5F5F5F5F5F5F5F5F5F5F5F5F5F5F5F5F5F5F5F5F5F5F5F5F5F5F5F5F5F5F5F5F5F5F5F5F5F5F5F5F5F5F5F5F5F5F5F5F5F5F5F5F5F5F5F5F5F5F5F5F5F5F5F5F5F5F5F5F5F5F5F5F5F5F5F5F5F5F5F5F5F5F5F5F5F5F5F5F5F5F5F5
310
F5F5F5F5F5F5F5F5F5F5F5F5F5F5F5F5F5F5F5F5F5F5F5F5F5F5F5F5F5F5F5E2F5F5E2EFE2F5F5E2BEBEBEBEF5BEBEBEBEF5F5F5F5F5F5F5F5F5F5F5F5F5F5F5F5F5F5F5F5F5F5F5F5F5F5F5F5F5F5F5F5F5F5F5F5F5F5F5F5F5F5F5F5F5F5F5F5F5F5F5F5F5F5F5F5F5F5F5F5F5F5F5F5F5F5F5F5F5F5F5F5F5F5F5F5F5F5
310
F5F5F5F5F5F5F5F5F5F5F5F5F5F5F5F5F5F5F5F5F5F5F5F5F5F5F5F5F5F5F5F5F5F5F5F5F5F5F5F5F5F5F5F5F5F5F5F5F5F5F5F5F5F5F5F5F5F5F5F5F5F5F5F5F5F5F5F5F5F5F5F5F5F5F5F5F5F5F5F5F5F5F5F5E2F5F5E2EFE2F5F5E2BEBEBEBEBEBEBEBEBEF5F5F5F5F5F5F5F5F5F5F5F5F5F5F5F5F5F5F5F5F5F5F5F5F5
310
F5F5F5F5F5F5F5F5F5F5F5F5F5F5F5F5F5F5F5F5F5F5F5F5F5F5F5F5F5F5F5F5F5F5F5F5F5F5F5F5F5F5F5F5F5F5F5F5F5F5F5F5F5F5F5F5F5F5F5F5F5F5F5F5F5F5F5F5F5F5F5F5F5F5F5F5F5F5F5F5F5F5F5F5F5F5F5F5F5F5F5F5F5F5F5F5F5F5F5F5F5F5F5F5F5F5F5F5F5F5F5F5F5F5F5F5F5F5F5F5F5F5F5F5F5F5F5
310
F5F5F5F5F5F5F5F5F5F5E2F5F5E2EFE2F5F5E2BEBEBEBEBEBEBEBEBEF5F5F5F5F5F5F5F5F5F5F5F5F5F5F5F5F5F5F5F5F5F5F5F5F5F5F5F5F5F5F5F5F5F5F5F5F5F5F5F5F5F5F5F5F5F5F5F5F5F5F5F5F5F5F5F5F5F5F5F5F5F5F5F5F5F5F5F5F5F5F5F5F5F5F5F5F5F5F5F5F5F5F5F5F5F5F5F5F5F5F5F5F5F5F5F5F5F5F5
310
F5F5F5F5F5F5F5F5F5F5F5F5F5F5F5F5F5F5F5F5F5F5F5F5F5F5F5F5F5F5F5F5F5F5F5F5F5F5F5F5F5F5F5F5F5F5F5F5F5F5F5F5F5F5F5F5F5F5F5F5F5F5F5E2F5F5E2EFE2F5F5E2E2E2E2E2E2E2E2E2E2E2E2E2E2E2E2E2E2E2E2E2E2E2E2E2E2E2E2E2E2E2E2E2E2E2E2E2E2E2E2E2E2E2E2E2E2E2E2E2E2E2E2E2E2E2E2
310
E2E2E2E2E2E2E2E2E2E2E2E2E2E2E2E2E2E2E2E2E2E2E2E2E2E2E2E2E2E2E2E2E2E2E2E2E2E2E2E2E2E2E2E2E2E2E2E2E2E2E2E2E2E2E2E2E2E2E2E2E2E2E2E2E2E2E2E2E2E2E2E2E2E2E2E2E2E2E2E2E2E2E2E2E2E2E2E2E2E2E2E2E2E2E2E2E2E2E2E2E2E2E2E2E2E2E2E2E2E2E2E2E2E2E2E2E2F5F5E2EFE2F5F5F5F5F5
310
F5F5F5F5F5F5F5F5F5F5F5F5F5F5F5F5F5F5F5F5F5F5F5F5F5F5F5F5F5F5F5F5F5F5F5F5F5F5F5F5F5F5F5F5F5F5F5F5F5F5F5F5F5F5F5F5F5F5F5F5F5F5F5F5F5F5F5F5F5F5F5F5F5F5F5F5F5F5F5F5F5F5F5F5F5F5F5F5F5F5F5F5F5F5F5F5F5F5F5F5F5F5F5F5F5F5F5F5F5F5F5F5F5F5F5F5F5F5F5F5F5F5F5F5F5F5F5
310
F5F5F5F5F5F5F5F5F5F5F5F5F5F5F5F5F5F5F5F5F5F5F5F5F5F5F5F5F5F5F5F5F5F5F5F5F5F5F5F5F5F5F5F5F5E2EFE2E2E2E2E2E2E2E2E2E2E2E2E2E2E2E2E2E2E2E2E2E2E2E2E2E2E2E2E2E2E2E2E2E2E2E2E2E2E2E2E2E2E2E2E2E2E2E2E2E2E2E2E2E2E2E2E2E2E2E2E2E2E2E2E2E2E2E2E2E2E2E2E2E2E2E2E2E2E2E2
310
E2E2E2E2E2E2E2E2E2E2E2E2E2E2E2E2E2E2E2E2E2E2E2E2E2E2E2E2E2E2E2E2E2E2E2E2E2E2E2E2E2E2E2E2E2E2E2E2E2E2E2E2E2E2E2E2E2E2E2E2E2E2E2E2E2E2E2E2E2E2E2E2E2E2E2E2E2E2E2E2E2E2E2E2E2E2E2E2E2E2E2E2E2E2E2E2E2E2E2EF
  0
XRECORD
  5
38F
102
{ACAD_REACTORS
330
38E
102
}
330
38E
100
AcDbXrecord
280
     1
102
SHADEPLOT
 70
     0
102
SHADEPLOTRESLEVEL
 70
     2
102
SHADEPLOTCUSTOMDPI
 70
   300
  0
XRECORD
  5
25C
102
{ACAD_REACTORS
330
3D
102
}
330
3D
100
AcDbXrecord
280
     1
102
MATERIAL
148
0.0
149
0.0
149
0.0
 93
        0
 94
      127
282
     0
 72
     0
 77
     0
171
     0
175
     0
179
     0
273
     0
  0
XRECORD
  5
3E
102
{ACAD_REACTORS
330
3D
102
}
330
3D
100
AcDbXrecord
280
     1
270
     1
271
     1
  0
XRECORD
  5
3F
102
{ACAD_REACTORS
330
3D
102
}
330
3D
100
AcDbXrecord
280
     1
270
     1
271
     1
  0
XRECORD
  5
40
102
{ACAD_REACTORS
330
3D
102
}
330
3D
100
AcDbXrecord
280
     1
270
     1
271
     1
  0
XRECORD
  5
41
102
{ACAD_REACTORS
330
3D
102
}
330
3D
100
AcDbXrecord
280
     1
270
     1
271
     1
  0
XRECORD
  5
42
102
{ACAD_REACTORS
330
3D
102
}
330
3D
100
AcDbXrecord
280
     1
270
     1
271
     1
  0
XRECORD
  5
43
102
{ACAD_REACTORS
330
3D
102
}
330
3D
100
AcDbXrecord
280
     1
270
     1
271
     1
  0
XRECORD
  5
25B
102
{ACAD_REACTORS
330
35
102
}
330
35
100
AcDbXrecord
280
     1
102
MATERIAL
148
0.0
149
0.0
149
0.0
 93
        0
 94
      127
282
     0
 72
     0
 77
     0
171
     0
175
     0
179
     0
273
     0
  0
XRECORD
  5
36
102
{ACAD_REACTORS
330
35
102
}
330
35
100
AcDbXrecord
280
     1
270
     1
271
     1
  0
XRECORD
  5
37
102
{ACAD_REACTORS
330
35
102
}
330
35
100
AcDbXrecord
280
     1
270
     1
271
     1
  0
XRECORD
  5
38
102
{ACAD_REACTORS
330
35
102
}
330
35
100
AcDbXrecord
280
     1
270
     1
271
     1
  0
XRECORD
  5
39
102
{ACAD_REACTORS
330
35
102
}
330
35
100
AcDbXrecord
280
     1
270
     1
271
     1
  0
XRECORD
  5
3A
102
{ACAD_REACTORS
330
35
102
}
330
35
100
AcDbXrecord
280
     1
270
     1
271
     1
  0
XRECORD
  5
3B
102
{ACAD_REACTORS
330
35
102
}
330
35
100
AcDbXrecord
280
     1
270
     1
271
     1
  0
XRECORD
  5
257
102
{ACAD_REACTORS
330
B
102
}
330
B
100
AcDbXrecord
280
     1
102
MATERIAL
148
0.0
149
0.0
149
0.0
 93
        0
 94
      127
282
     0
 72
     0
 77
     0
171
     0
175
     0
179
     0
273
     0
  0
XRECORD
  5
C
102
{ACAD_REACTORS
330
B
102
}
330
B
100
AcDbXrecord
280
     1
270
     1
271
     1
  0
XRECORD
  5
D
102
{ACAD_REACTORS
330
B
102
}
330
B
100
AcDbXrecord
280
     1
270
     1
271
     1
  0
XRECORD
  5
E
102
{ACAD_REACTORS
330
B
102
}
330
B
100
AcDbXrecord
280
     1
270
     1
271
     1
  0
XRECORD
  5
F
102
{ACAD_REACTORS
330
B
102
}
330
B
100
AcDbXrecord
280
     1
270
     1
271
     1
  0
XRECORD
  5
10
102
{ACAD_REACTORS
330
B
102
}
330
B
100
AcDbXrecord
280
     1
270
     1
271
     1
  0
XRECORD
  5
11
102
{ACAD_REACTORS
330
B
102
}
330
B
100
AcDbXrecord
280
     1
270
     1
271
     1
  0
CELLSTYLEMAP
  5
38C
102
{ACAD_REACTORS
330
253
102
}
330
253
100
AcDbCellStyleMap
 90
        3
300
CELLSTYLE
  1
TABLEFORMAT_BEGIN
 90
        5
170
     1
 91
        0
 92
    32768
 62
   257
 93
        1
300
CONTENTFORMAT
  1
CONTENTFORMAT_BEGIN
 90
        0
 91
        0
 92
        4
 93
        0
300

 40
0.0
140
1.0
 94
        5
 62
     0
340
20
144
0.25
309
CONTENTFORMAT_END
171
     1
301
MARGIN
  1
CELLMARGIN_BEGIN
 40
0.06
 40
0.06
 40
0.06
 40
0.06
 40
0.18
 40
0.18
309
CELLMARGIN_END
 94
        6
 95
        1
302
GRIDFORMAT
  1
GRIDFORMAT_BEGIN
 90
        0
 91
        1
 62
     0
 92
       -2
340
0
 93
        0
 40
0.045
309
GRIDFORMAT_END
 95
        2
302
GRIDFORMAT
  1
GRIDFORMAT_BEGIN
 90
        0
 91
        1
 62
     0
 92
       -2
340
0
 93
        0
 40
0.045
309
GRIDFORMAT_END
 95
        4
302
GRIDFORMAT
  1
GRIDFORMAT_BEGIN
 90
        0
 91
        1
 62
     0
 92
       -2
340
0
 93
        0
 40
0.045
309
GRIDFORMAT_END
 95
        8
302
GRIDFORMAT
  1
GRIDFORMAT_BEGIN
 90
        0
 91
        1
 62
     0
 92
       -2
340
0
 93
        0
 40
0.045
309
GRIDFORMAT_END
 95
       16
302
GRIDFORMAT
  1
GRIDFORMAT_BEGIN
 90
        0
 91
        1
 62
     0
 92
       -2
340
0
 93
        0
 40
0.045
309
GRIDFORMAT_END
 95
       32
302
GRIDFORMAT
  1
GRIDFORMAT_BEGIN
 90
        0
 91
        1
 62
     0
 92
       -2
340
0
 93
        0
 40
0.045
309
GRIDFORMAT_END
309
TABLEFORMAT_END
  1
CELLSTYLE_BEGIN
 90
        1
 91
        1
300
_TITLE
309
CELLSTYLE_END
300
CELLSTYLE
  1
TABLEFORMAT_BEGIN
 90
        5
170
     1
 91
        0
 92
        0
 62
   257
 93
        1
300
CONTENTFORMAT
  1
CONTENTFORMAT_BEGIN
 90
        0
 91
        0
 92
        4
 93
        0
300

 40
0.0
140
1.0
 94
        5
 62
     0
340
20
144
0.18
309
CONTENTFORMAT_END
171
     1
301
MARGIN
  1
CELLMARGIN_BEGIN
 40
0.06
 40
0.06
 40
0.06
 40
0.06
 40
0.18
 40
0.18
309
CELLMARGIN_END
 94
        6
 95
        1
302
GRIDFORMAT
  1
GRIDFORMAT_BEGIN
 90
        0
 91
        1
 62
     0
 92
       -2
340
0
 93
        0
 40
0.045
309
GRIDFORMAT_END
 95
        2
302
GRIDFORMAT
  1
GRIDFORMAT_BEGIN
 90
        0
 91
        1
 62
     0
 92
       -2
340
0
 93
        0
 40
0.045
309
GRIDFORMAT_END
 95
        4
302
GRIDFORMAT
  1
GRIDFORMAT_BEGIN
 90
        0
 91
        1
 62
     0
 92
       -2
340
0
 93
        0
 40
0.045
309
GRIDFORMAT_END
 95
        8
302
GRIDFORMAT
  1
GRIDFORMAT_BEGIN
 90
        0
 91
        1
 62
     0
 92
       -2
340
0
 93
        0
 40
0.045
309
GRIDFORMAT_END
 95
       16
302
GRIDFORMAT
  1
GRIDFORMAT_BEGIN
 90
        0
 91
        1
 62
     0
 92
       -2
340
0
 93
        0
 40
0.045
309
GRIDFORMAT_END
 95
       32
302
GRIDFORMAT
  1
GRIDFORMAT_BEGIN
 90
        0
 91
        1
 62
     0
 92
       -2
340
0
 93
        0
 40
0.045
309
GRIDFORMAT_END
309
TABLEFORMAT_END
  1
CELLSTYLE_BEGIN
 90
        2
 91
        1
300
_HEADER
309
CELLSTYLE_END
300
CELLSTYLE
  1
TABLEFORMAT_BEGIN
 90
        5
170
     1
 91
        0
 92
        0
 62
   257
 93
        1
300
CONTENTFORMAT
  1
CONTENTFORMAT_BEGIN
 90
        0
 91
        0
 92
        4
 93
        0
300

 40
0.0
140
1.0
 94
        2
 62
     0
340
20
144
0.18
309
CONTENTFORMAT_END
171
     1
301
MARGIN
  1
CELLMARGIN_BEGIN
 40
0.06
 40
0.06
 40
0.06
 40
0.06
 40
0.18
 40
0.18
309
CELLMARGIN_END
 94
        6
 95
        1
302
GRIDFORMAT
  1
GRIDFORMAT_BEGIN
 90
        0
 91
        1
 62
     0
 92
       -2
340
0
 93
        0
 40
0.045
309
GRIDFORMAT_END
 95
        2
302
GRIDFORMAT
  1
GRIDFORMAT_BEGIN
 90
        0
 91
        1
 62
     0
 92
       -2
340
0
 93
        0
 40
0.045
309
GRIDFORMAT_END
 95
        4
302
GRIDFORMAT
  1
GRIDFORMAT_BEGIN
 90
        0
 91
        1
 62
     0
 92
       -2
340
0
 93
        0
 40
0.045
309
GRIDFORMAT_END
 95
        8
302
GRIDFORMAT
  1
GRIDFORMAT_BEGIN
 90
        0
 91
        1
 62
     0
 92
       -2
340
0
 93
        0
 40
0.045
309
GRIDFORMAT_END
 95
       16
302
GRIDFORMAT
  1
GRIDFORMAT_BEGIN
 90
        0
 91
        1
 62
     0
 92
       -2
340
0
 93
        0
 40
0.045
309
GRIDFORMAT_END
 95
       32
302
GRIDFORMAT
  1
GRIDFORMAT_BEGIN
 90
        0
 91
        1
 62
     0
 92
       -2
340
0
 93
        0
 40
0.045
309
GRIDFORMAT_END
309
TABLEFORMAT_END
  1
CELLSTYLE_BEGIN
 90
        3
 91
        2
300
_DATA
309
CELLSTYLE_END
  0
XRECORD
  5
391
102
{ACAD_REACTORS
330
253
102
}
330
253
100
AcDbXrecord
280
     1
102
ACAD_ROUNDTRIP_PRE2007_TABLESTYLE
 90
        4
 91
        0
  1

 92
        4
 93
        0
  2

 94
        4
 95
        0
  3

  0
ENDSEC
  0
EOF
